  0
SECTION
  2
HEADER
  9
$ACADVER
  1
AC1006
  9
$EXTMIN
 10
-14.498185
 20
-12.061858
  9
$EXTMAX
 10
15.338209
 20
13.170016
  9
$LTSCALE
 40
0.000394
  9
$PDMODE
 70
    35
  9
$PDSIZE
 40
0.000315
  0
ENDSEC
  0
SECTION
  2
TABLES
  0
TABLE
  2
LTYPE
 70
     9
  0
LTYPE
  2
CONTINUOUS
 70
    64
  3
Solid line
 72
    65
 73
     0
 40
0.000000
  0
LTYPE
  2
DASHED
 70
    64
  3
__ __ __ __ __ __ __ __ __ __ __ __ __ __ __
 72
    65
 73
     2
 40
0.000003
 49
0.000002
 49
-0.000001
  0
LTYPE
  2
HIDDEN
 70
    64
  3
 _ _ _ _ _ _ _ _ _ _ _ _ _ _ _ _ _ _ _ _ _ _
 72
    65
 73
     2
 40
0.000001
 49
0.000001
 49
-0.000000
  0
LTYPE
  2
CENTER
 70
    64
  3
____ _ ____ _ ____ _ ____ _ ____ _ ____ _ ____
 72
    65
 73
     4
 40
0.000008
 49
0.000005
 49
-0.000001
 49
0.000001
 49
-0.000001
  0
LTYPE
  2
PHANTOM
 70
    64
  3
_____ _ _ _____ _ _ _____ _ _ _____ _ _ ____
 72
    65
 73
     6
 40
0.000010
 49
0.000005
 49
-0.000001
 49
0.000001
 49
-0.000001
 49
0.000001
 49
-0.000001
  0
LTYPE
  2
DOT
 70
    64
  3
...............................................
 72
    65
 73
     2
 40
0.000001
 49
0.000000
 49
-0.000001
  0
LTYPE
  2
DASHDOT
 70
    64
  3
__ . __ . __ . __ . __ . __ . __ . __ . __ . __
 72
    65
 73
     4
 40
0.000004
 49
0.000002
 49
-0.000001
 49
0.000000
 49
-0.000001
  0
LTYPE
  2
BORDER
 70
    64
  3
__ __ . __ __ . __ __ . __ __ . __ __ . __ __
 72
    65
 73
     6
 40
0.000007
 49
0.000002
 49
-0.000001
 49
0.000002
 49
-0.000001
 49
0.000000
 49
-0.000001
  0
LTYPE
  2
DIVIDE
 70
    64
  3
__ . . __ . . __ . . __ . . __ . . __ . . __
 72
    65
 73
     6
 40
0.000005
 49
0.000002
 49
-0.000001
 49
0.000000
 49
-0.000001
 49
0.000000
 49
-0.000001
  0
LTYPE
  2
DOTDOT
 70
    64
  3
 . .  . .  . .  . .  . .  . . 
 72
    65
 73
     5
 40
0.000002
 49
-0.000001
 49
0.000000
 49
-0.000001
 49
0.000000
 49
-0.000001
  0
ENDTAB
  0
TABLE
  2
STYLE
 70
     2
  0
STYLE
 70
     0
  2
SN0
 40
0.000000
 41
0.000004
 50
0.000000
 71
     0
 42
0.000000
  3
Arial
  0
STYLE
 70
    68
  2
SV0
 40
0.000000
 41
0.000004
 50
0.000000
 71
     0
 42
0.000000
  3
Arial
  0
ENDTAB
  0
TABLE
  2
LAYER
 70
     3
  0
LAYER
  2
FOREGROUND
 70
    64
 62
     7
  6
CONTINUOUS
  0
LAYER
  2
BACKGROUND
 70
    65
 62
    -7
  6
CONTINUOUS
  0
LAYER
  2
EBENE_1
 70
    64
 62
     7
  6
CONTINUOUS
  0
ENDTAB
  0
ENDSEC
  0
SECTION
  2
ENTITIES
  0
POLYLINE
  8
EBENE_1
 62
     1
  6
CONTINUOUS
 66
     1
 40
0.003000
 41
0.003000
 70
     1
  0
VERTEX
  8
EBENE_1
 62
     1
  6
CONTINUOUS
 10
3.660283
 20
3.362039
  0
VERTEX
  8
EBENE_1
 62
     1
  6
CONTINUOUS
 10
-12.875150
 20
3.362039
  0
VERTEX
  8
EBENE_1
 62
     1
  6
CONTINUOUS
 10
-12.875150
 20
9.152587
  0
VERTEX
  8
EBENE_1
 62
     1
  6
CONTINUOUS
 10
-12.848207
 20
9.251810
  0
VERTEX
  8
EBENE_1
 62
     1
  6
CONTINUOUS
 10
-12.777519
 20
9.322498
  0
VERTEX
  8
EBENE_1
 62
     1
  6
CONTINUOUS
 10
-12.678295
 20
9.349441
  0
VERTEX
  8
EBENE_1
 62
     1
  6
CONTINUOUS
 10
-2.991213
 20
9.349441
  0
VERTEX
  8
EBENE_1
 62
     1
  6
CONTINUOUS
 10
-2.891993
 20
9.322498
  0
VERTEX
  8
EBENE_1
 62
     1
  6
CONTINUOUS
 10
-2.821308
 20
9.251810
  0
VERTEX
  8
EBENE_1
 62
     1
  6
CONTINUOUS
 10
-2.794366
 20
9.152587
  0
VERTEX
  8
EBENE_1
 62
     1
  6
CONTINUOUS
 10
-2.794362
 20
7.909283
  0
VERTEX
  8
EBENE_1
 62
     1
  6
CONTINUOUS
 10
-2.282551
 20
7.909283
  0
VERTEX
  8
EBENE_1
 62
     1
  6
CONTINUOUS
 10
-2.282551
 20
4.090386
  0
VERTEX
  8
EBENE_1
 62
     1
  6
CONTINUOUS
 10
-1.786492
 20
4.090386
  0
VERTEX
  8
EBENE_1
 62
     1
  6
CONTINUOUS
 10
-1.786492
 20
7.909283
  0
VERTEX
  8
EBENE_1
 62
     1
  6
CONTINUOUS
 10
-1.483343
 20
7.909283
  0
VERTEX
  8
EBENE_1
 62
     1
  6
CONTINUOUS
 10
-1.483343
 20
4.090386
  0
VERTEX
  8
EBENE_1
 62
     1
  6
CONTINUOUS
 10
-0.987283
 20
4.090386
  0
VERTEX
  8
EBENE_1
 62
     1
  6
CONTINUOUS
 10
-0.987283
 20
7.909283
  0
VERTEX
  8
EBENE_1
 62
     1
  6
CONTINUOUS
 10
-0.684134
 20
7.909283
  0
VERTEX
  8
EBENE_1
 62
     1
  6
CONTINUOUS
 10
-0.684134
 20
4.090386
  0
VERTEX
  8
EBENE_1
 62
     1
  6
CONTINUOUS
 10
-0.188075
 20
4.090386
  0
VERTEX
  8
EBENE_1
 62
     1
  6
CONTINUOUS
 10
-0.188075
 20
7.909283
  0
VERTEX
  8
EBENE_1
 62
     1
  6
CONTINUOUS
 10
0.115075
 20
7.909283
  0
VERTEX
  8
EBENE_1
 62
     1
  6
CONTINUOUS
 10
0.115075
 20
4.090386
  0
VERTEX
  8
EBENE_1
 62
     1
  6
CONTINUOUS
 10
0.611134
 20
4.090386
  0
VERTEX
  8
EBENE_1
 62
     1
  6
CONTINUOUS
 10
0.611134
 20
7.909283
  0
VERTEX
  8
EBENE_1
 62
     1
  6
CONTINUOUS
 10
0.914283
 20
7.909283
  0
VERTEX
  8
EBENE_1
 62
     1
  6
CONTINUOUS
 10
0.914283
 20
4.090386
  0
VERTEX
  8
EBENE_1
 62
     1
  6
CONTINUOUS
 10
1.410343
 20
4.090386
  0
VERTEX
  8
EBENE_1
 62
     1
  6
CONTINUOUS
 10
1.410343
 20
7.909283
  0
VERTEX
  8
EBENE_1
 62
     1
  6
CONTINUOUS
 10
1.713492
 20
7.909283
  0
VERTEX
  8
EBENE_1
 62
     1
  6
CONTINUOUS
 10
1.713492
 20
4.090386
  0
VERTEX
  8
EBENE_1
 62
     1
  6
CONTINUOUS
 10
2.209551
 20
4.090386
  0
VERTEX
  8
EBENE_1
 62
     1
  6
CONTINUOUS
 10
2.209551
 20
7.909283
  0
VERTEX
  8
EBENE_1
 62
     1
  6
CONTINUOUS
 10
2.512701
 20
7.909283
  0
VERTEX
  8
EBENE_1
 62
     1
  6
CONTINUOUS
 10
2.512701
 20
4.090386
  0
VERTEX
  8
EBENE_1
 62
     1
  6
CONTINUOUS
 10
3.008760
 20
4.090386
  0
VERTEX
  8
EBENE_1
 62
     1
  6
CONTINUOUS
 10
3.008760
 20
7.909283
  0
VERTEX
  8
EBENE_1
 62
     1
  6
CONTINUOUS
 10
3.660283
 20
7.909283
  0
SEQEND
  8
0
  0
POLYLINE
  8
EBENE_1
 62
     1
  6
CONTINUOUS
 66
     1
 40
0.003000
 41
0.003000
 70
     1
  0
VERTEX
  8
EBENE_1
 62
     1
  6
CONTINUOUS
 10
-11.843260
 20
8.846291
  0
VERTEX
  8
EBENE_1
 62
     1
  6
CONTINUOUS
 10
-12.225150
 20
8.846291
  0
VERTEX
  8
EBENE_1
 62
     1
  6
CONTINUOUS
 10
-12.225150
 20
4.879756
  0
VERTEX
  8
EBENE_1
 62
     1
  6
CONTINUOUS
 10
-12.099136
 20
4.845540
  0
VERTEX
  8
EBENE_1
 62
     1
  6
CONTINUOUS
 10
-12.009365
 20
4.755769
  0
VERTEX
  8
EBENE_1
 62
     1
  6
CONTINUOUS
 10
-11.975150
 20
4.629756
  0
VERTEX
  8
EBENE_1
 62
     1
  6
CONTINUOUS
 10
-11.975150
 20
3.690780
  0
VERTEX
  8
EBENE_1
 62
     1
  6
CONTINUOUS
 10
-9.589323
 20
3.690780
  0
VERTEX
  8
EBENE_1
 62
     1
  6
CONTINUOUS
 10
-9.555107
 20
3.816793
  0
VERTEX
  8
EBENE_1
 62
     1
  6
CONTINUOUS
 10
-9.465336
 20
3.906564
  0
VERTEX
  8
EBENE_1
 62
     1
  6
CONTINUOUS
 10
-9.339323
 20
3.940780
  0
VERTEX
  8
EBENE_1
 62
     1
  6
CONTINUOUS
 10
-9.339323
 20
8.846291
  0
VERTEX
  8
EBENE_1
 62
     1
  6
CONTINUOUS
 10
-9.465336
 20
8.880507
  0
VERTEX
  8
EBENE_1
 62
     1
  6
CONTINUOUS
 10
-9.555107
 20
8.970278
  0
VERTEX
  8
EBENE_1
 62
     1
  6
CONTINUOUS
 10
-9.589323
 20
9.096291
  0
VERTEX
  8
EBENE_1
 62
     1
  6
CONTINUOUS
 10
-11.593260
 20
9.096291
  0
VERTEX
  8
EBENE_1
 62
     1
  6
CONTINUOUS
 10
-11.627475
 20
8.970278
  0
VERTEX
  8
EBENE_1
 62
     1
  6
CONTINUOUS
 10
-11.717246
 20
8.880507
  0
SEQEND
  8
0
  0
SOLID
  8
EBENE_1
 62
     7
 10
-2.585701
 20
3.605740
 11
-8.835701
 21
3.605740
 12
-2.585701
 22
5.355740
 13
-8.835701
 23
5.355740
  0
POLYLINE
  8
EBENE_1
 62
     1
  6
CONTINUOUS
 66
     1
 40
0.003000
 41
0.003000
 70
     1
  0
VERTEX
  8
EBENE_1
 62
     1
  6
CONTINUOUS
 10
-2.585701
 20
3.605740
  0
VERTEX
  8
EBENE_1
 62
     1
  6
CONTINUOUS
 10
-8.835701
 20
3.605740
  0
VERTEX
  8
EBENE_1
 62
     1
  6
CONTINUOUS
 10
-8.835701
 20
5.355740
  0
VERTEX
  8
EBENE_1
 62
     1
  6
CONTINUOUS
 10
-2.585701
 20
5.355740
  0
SEQEND
  8
0
  0
POLYLINE
  8
EBENE_1
 62
     1
  6
CONTINUOUS
 66
     1
 40
0.003000
 41
0.003000
 70
     1
  0
VERTEX
  8
EBENE_1
 62
     1
  6
CONTINUOUS
 10
3.260283
 20
3.677000
  0
VERTEX
  8
EBENE_1
 62
     1
  6
CONTINUOUS
 10
-8.747591
 20
3.677000
  0
VERTEX
  8
EBENE_1
 62
     1
  6
CONTINUOUS
 10
-8.747591
 20
3.755740
  0
VERTEX
  8
EBENE_1
 62
     1
  6
CONTINUOUS
 10
3.260283
 20
3.755740
  0
SEQEND
  8
0
  0
POLYLINE
  8
EBENE_1
 62
     3
  6
CONTINUOUS
 66
     1
 40
0.003000
 41
0.003000
 70
     1
  0
VERTEX
  8
EBENE_1
 62
     3
  6
CONTINUOUS
 10
-9.089323
 20
9.346291
  0
VERTEX
  8
EBENE_1
 62
     3
  6
CONTINUOUS
 10
-12.475150
 20
9.346291
  0
VERTEX
  8
EBENE_1
 62
     3
  6
CONTINUOUS
 10
-12.475150
 20
3.440780
  0
VERTEX
  8
EBENE_1
 62
     3
  6
CONTINUOUS
 10
-9.089323
 20
3.440780
  0
SEQEND
  8
0
  0
POLYLINE
  8
EBENE_1
 62
     1
  6
CONTINUOUS
 66
     1
 40
0.003000
 41
0.003000
 70
     1
  0
VERTEX
  8
EBENE_1
 62
     1
  6
CONTINUOUS
 10
3.660283
 20
3.243929
  0
VERTEX
  8
EBENE_1
 62
     1
  6
CONTINUOUS
 10
-12.875150
 20
3.243929
  0
VERTEX
  8
EBENE_1
 62
     1
  6
CONTINUOUS
 10
-12.875150
 20
3.362039
  0
VERTEX
  8
EBENE_1
 62
     1
  6
CONTINUOUS
 10
3.660283
 20
3.362039
  0
SEQEND
  8
0
  0
POLYLINE
  8
EBENE_1
 62
     1
  6
CONTINUOUS
 66
     1
 40
0.003000
 41
0.003000
 70
     1
  0
VERTEX
  8
EBENE_1
 62
     1
  6
CONTINUOUS
 10
-2.585701
 20
3.605740
  0
VERTEX
  8
EBENE_1
 62
     1
  6
CONTINUOUS
 10
-8.835701
 20
3.605740
  0
VERTEX
  8
EBENE_1
 62
     1
  6
CONTINUOUS
 10
-8.835701
 20
5.355740
  0
VERTEX
  8
EBENE_1
 62
     1
  6
CONTINUOUS
 10
-2.585701
 20
5.355740
  0
SEQEND
  8
0
  0
POLYLINE
  8
EBENE_1
 62
     1
  6
CONTINUOUS
 66
     1
 40
0.003000
 41
0.003000
 70
     1
  0
VERTEX
  8
EBENE_1
 62
     1
  6
CONTINUOUS
 10
-8.548772
 20
3.677000
  0
VERTEX
  8
EBENE_1
 62
     1
  6
CONTINUOUS
 10
-8.430661
 20
3.677000
  0
VERTEX
  8
EBENE_1
 62
     1
  6
CONTINUOUS
 10
-8.430661
 20
3.362039
  0
VERTEX
  8
EBENE_1
 62
     1
  6
CONTINUOUS
 10
-8.548772
 20
3.362039
  0
SEQEND
  8
0
  0
POLYLINE
  8
EBENE_1
 62
     1
  6
CONTINUOUS
 66
     1
 40
0.003000
 41
0.003000
 70
     1
  0
VERTEX
  8
EBENE_1
 62
     1
  6
CONTINUOUS
 10
-8.538929
 20
3.667157
  0
VERTEX
  8
EBENE_1
 62
     1
  6
CONTINUOUS
 10
-8.440504
 20
3.667157
  0
VERTEX
  8
EBENE_1
 62
     1
  6
CONTINUOUS
 10
-8.440504
 20
3.371882
  0
VERTEX
  8
EBENE_1
 62
     1
  6
CONTINUOUS
 10
-8.538929
 20
3.371882
  0
SEQEND
  8
0
  0
POLYLINE
  8
EBENE_1
 62
     1
  6
CONTINUOUS
 66
     1
 40
0.003000
 41
0.003000
  0
VERTEX
  8
EBENE_1
 62
     1
  6
CONTINUOUS
 10
-8.548772
 20
3.677000
  0
VERTEX
  8
EBENE_1
 62
     1
  6
CONTINUOUS
 10
-8.538929
 20
3.667157
  0
SEQEND
  8
0
  0
POLYLINE
  8
EBENE_1
 62
     1
  6
CONTINUOUS
 66
     1
 40
0.003000
 41
0.003000
  0
VERTEX
  8
EBENE_1
 62
     1
  6
CONTINUOUS
 10
-8.430661
 20
3.677000
  0
VERTEX
  8
EBENE_1
 62
     1
  6
CONTINUOUS
 10
-8.440504
 20
3.667157
  0
SEQEND
  8
0
  0
POLYLINE
  8
EBENE_1
 62
     1
  6
CONTINUOUS
 66
     1
 40
0.003000
 41
0.003000
  0
VERTEX
  8
EBENE_1
 62
     1
  6
CONTINUOUS
 10
-8.538929
 20
3.371882
  0
VERTEX
  8
EBENE_1
 62
     1
  6
CONTINUOUS
 10
-8.548772
 20
3.362039
  0
SEQEND
  8
0
  0
POLYLINE
  8
EBENE_1
 62
     1
  6
CONTINUOUS
 66
     1
 40
0.003000
 41
0.003000
  0
VERTEX
  8
EBENE_1
 62
     1
  6
CONTINUOUS
 10
-8.440504
 20
3.371882
  0
VERTEX
  8
EBENE_1
 62
     1
  6
CONTINUOUS
 10
-8.430661
 20
3.362039
  0
SEQEND
  8
0
  0
POLYLINE
  8
EBENE_1
 62
     1
  6
CONTINUOUS
 66
     1
 40
0.003000
 41
0.003000
 70
     1
  0
VERTEX
  8
EBENE_1
 62
     1
  6
CONTINUOUS
 10
-8.601921
 20
3.677000
  0
VERTEX
  8
EBENE_1
 62
     1
  6
CONTINUOUS
 10
-8.377512
 20
3.677000
  0
VERTEX
  8
EBENE_1
 62
     1
  6
CONTINUOUS
 10
-8.377512
 20
3.362039
  0
VERTEX
  8
EBENE_1
 62
     1
  6
CONTINUOUS
 10
-8.601921
 20
3.362039
  0
SEQEND
  8
0
  0
POLYLINE
  8
EBENE_1
 62
     1
  6
CONTINUOUS
 66
     1
 40
0.003000
 41
0.003000
 70
     1
  0
VERTEX
  8
EBENE_1
 62
     1
  6
CONTINUOUS
 10
-8.552709
 20
3.677000
  0
VERTEX
  8
EBENE_1
 62
     1
  6
CONTINUOUS
 10
-8.426724
 20
3.677000
  0
VERTEX
  8
EBENE_1
 62
     1
  6
CONTINUOUS
 10
-8.426724
 20
3.362039
  0
VERTEX
  8
EBENE_1
 62
     1
  6
CONTINUOUS
 10
-8.552709
 20
3.362039
  0
SEQEND
  8
0
  0
POLYLINE
  8
EBENE_1
 62
     1
  6
CONTINUOUS
 66
     1
 40
0.003000
 41
0.003000
 70
     1
  0
VERTEX
  8
EBENE_1
 62
     1
  6
CONTINUOUS
 10
-2.348772
 20
3.677000
  0
VERTEX
  8
EBENE_1
 62
     1
  6
CONTINUOUS
 10
-2.230661
 20
3.677000
  0
VERTEX
  8
EBENE_1
 62
     1
  6
CONTINUOUS
 10
-2.230661
 20
3.362039
  0
VERTEX
  8
EBENE_1
 62
     1
  6
CONTINUOUS
 10
-2.348772
 20
3.362039
  0
SEQEND
  8
0
  0
POLYLINE
  8
EBENE_1
 62
     1
  6
CONTINUOUS
 66
     1
 40
0.003000
 41
0.003000
 70
     1
  0
VERTEX
  8
EBENE_1
 62
     1
  6
CONTINUOUS
 10
-2.338929
 20
3.667157
  0
VERTEX
  8
EBENE_1
 62
     1
  6
CONTINUOUS
 10
-2.240504
 20
3.667157
  0
VERTEX
  8
EBENE_1
 62
     1
  6
CONTINUOUS
 10
-2.240504
 20
3.371882
  0
VERTEX
  8
EBENE_1
 62
     1
  6
CONTINUOUS
 10
-2.338929
 20
3.371882
  0
SEQEND
  8
0
  0
POLYLINE
  8
EBENE_1
 62
     1
  6
CONTINUOUS
 66
     1
 40
0.003000
 41
0.003000
  0
VERTEX
  8
EBENE_1
 62
     1
  6
CONTINUOUS
 10
-2.348772
 20
3.677000
  0
VERTEX
  8
EBENE_1
 62
     1
  6
CONTINUOUS
 10
-2.338929
 20
3.667157
  0
SEQEND
  8
0
  0
POLYLINE
  8
EBENE_1
 62
     1
  6
CONTINUOUS
 66
     1
 40
0.003000
 41
0.003000
  0
VERTEX
  8
EBENE_1
 62
     1
  6
CONTINUOUS
 10
-2.230661
 20
3.677000
  0
VERTEX
  8
EBENE_1
 62
     1
  6
CONTINUOUS
 10
-2.240504
 20
3.667157
  0
SEQEND
  8
0
  0
POLYLINE
  8
EBENE_1
 62
     1
  6
CONTINUOUS
 66
     1
 40
0.003000
 41
0.003000
  0
VERTEX
  8
EBENE_1
 62
     1
  6
CONTINUOUS
 10
-2.338929
 20
3.371882
  0
VERTEX
  8
EBENE_1
 62
     1
  6
CONTINUOUS
 10
-2.348772
 20
3.362039
  0
SEQEND
  8
0
  0
POLYLINE
  8
EBENE_1
 62
     1
  6
CONTINUOUS
 66
     1
 40
0.003000
 41
0.003000
  0
VERTEX
  8
EBENE_1
 62
     1
  6
CONTINUOUS
 10
-2.240504
 20
3.371882
  0
VERTEX
  8
EBENE_1
 62
     1
  6
CONTINUOUS
 10
-2.230661
 20
3.362039
  0
SEQEND
  8
0
  0
POLYLINE
  8
EBENE_1
 62
     1
  6
CONTINUOUS
 66
     1
 40
0.003000
 41
0.003000
 70
     1
  0
VERTEX
  8
EBENE_1
 62
     1
  6
CONTINUOUS
 10
-2.401921
 20
3.677000
  0
VERTEX
  8
EBENE_1
 62
     1
  6
CONTINUOUS
 10
-2.177512
 20
3.677000
  0
VERTEX
  8
EBENE_1
 62
     1
  6
CONTINUOUS
 10
-2.177512
 20
3.362039
  0
VERTEX
  8
EBENE_1
 62
     1
  6
CONTINUOUS
 10
-2.401921
 20
3.362039
  0
SEQEND
  8
0
  0
POLYLINE
  8
EBENE_1
 62
     1
  6
CONTINUOUS
 66
     1
 40
0.003000
 41
0.003000
 70
     1
  0
VERTEX
  8
EBENE_1
 62
     1
  6
CONTINUOUS
 10
-2.352709
 20
3.677000
  0
VERTEX
  8
EBENE_1
 62
     1
  6
CONTINUOUS
 10
-2.226724
 20
3.677000
  0
VERTEX
  8
EBENE_1
 62
     1
  6
CONTINUOUS
 10
-2.226724
 20
3.362039
  0
VERTEX
  8
EBENE_1
 62
     1
  6
CONTINUOUS
 10
-2.352709
 20
3.362039
  0
SEQEND
  8
0
  0
POLYLINE
  8
EBENE_1
 62
     1
  6
CONTINUOUS
 66
     1
 40
0.003000
 41
0.003000
 70
     1
  0
VERTEX
  8
EBENE_1
 62
     1
  6
CONTINUOUS
 10
-0.533606
 20
3.677000
  0
VERTEX
  8
EBENE_1
 62
     1
  6
CONTINUOUS
 10
-0.416461
 20
3.677000
  0
VERTEX
  8
EBENE_1
 62
     1
  6
CONTINUOUS
 10
-0.416461
 20
3.362039
  0
VERTEX
  8
EBENE_1
 62
     1
  6
CONTINUOUS
 10
-0.533606
 20
3.362039
  0
SEQEND
  8
0
  0
POLYLINE
  8
EBENE_1
 62
     1
  6
CONTINUOUS
 66
     1
 40
0.003000
 41
0.003000
 70
     1
  0
VERTEX
  8
EBENE_1
 62
     1
  6
CONTINUOUS
 10
-0.523846
 20
3.667157
  0
VERTEX
  8
EBENE_1
 62
     1
  6
CONTINUOUS
 10
-0.426224
 20
3.667157
  0
VERTEX
  8
EBENE_1
 62
     1
  6
CONTINUOUS
 10
-0.426224
 20
3.371882
  0
VERTEX
  8
EBENE_1
 62
     1
  6
CONTINUOUS
 10
-0.523846
 20
3.371882
  0
SEQEND
  8
0
  0
POLYLINE
  8
EBENE_1
 62
     1
  6
CONTINUOUS
 66
     1
 40
0.003000
 41
0.003000
  0
VERTEX
  8
EBENE_1
 62
     1
  6
CONTINUOUS
 10
-0.533606
 20
3.677000
  0
VERTEX
  8
EBENE_1
 62
     1
  6
CONTINUOUS
 10
-0.523846
 20
3.667157
  0
SEQEND
  8
0
  0
POLYLINE
  8
EBENE_1
 62
     1
  6
CONTINUOUS
 66
     1
 40
0.003000
 41
0.003000
  0
VERTEX
  8
EBENE_1
 62
     1
  6
CONTINUOUS
 10
-0.416461
 20
3.677000
  0
VERTEX
  8
EBENE_1
 62
     1
  6
CONTINUOUS
 10
-0.426224
 20
3.667157
  0
SEQEND
  8
0
  0
POLYLINE
  8
EBENE_1
 62
     1
  6
CONTINUOUS
 66
     1
 40
0.003000
 41
0.003000
  0
VERTEX
  8
EBENE_1
 62
     1
  6
CONTINUOUS
 10
-0.523846
 20
3.371882
  0
VERTEX
  8
EBENE_1
 62
     1
  6
CONTINUOUS
 10
-0.533606
 20
3.362039
  0
SEQEND
  8
0
  0
POLYLINE
  8
EBENE_1
 62
     1
  6
CONTINUOUS
 66
     1
 40
0.003000
 41
0.003000
  0
VERTEX
  8
EBENE_1
 62
     1
  6
CONTINUOUS
 10
-0.426224
 20
3.371882
  0
VERTEX
  8
EBENE_1
 62
     1
  6
CONTINUOUS
 10
-0.416461
 20
3.362039
  0
SEQEND
  8
0
  0
POLYLINE
  8
EBENE_1
 62
     1
  6
CONTINUOUS
 66
     1
 40
0.003000
 41
0.003000
 70
     1
  0
VERTEX
  8
EBENE_1
 62
     1
  6
CONTINUOUS
 10
-0.586323
 20
3.677000
  0
VERTEX
  8
EBENE_1
 62
     1
  6
CONTINUOUS
 10
-0.363744
 20
3.677000
  0
VERTEX
  8
EBENE_1
 62
     1
  6
CONTINUOUS
 10
-0.363744
 20
3.362039
  0
VERTEX
  8
EBENE_1
 62
     1
  6
CONTINUOUS
 10
-0.586323
 20
3.362039
  0
SEQEND
  8
0
  0
POLYLINE
  8
EBENE_1
 62
     1
  6
CONTINUOUS
 66
     1
 40
0.003000
 41
0.003000
 70
     1
  0
VERTEX
  8
EBENE_1
 62
     1
  6
CONTINUOUS
 10
-0.537512
 20
3.677000
  0
VERTEX
  8
EBENE_1
 62
     1
  6
CONTINUOUS
 10
-0.412555
 20
3.677000
  0
VERTEX
  8
EBENE_1
 62
     1
  6
CONTINUOUS
 10
-0.412555
 20
3.362039
  0
VERTEX
  8
EBENE_1
 62
     1
  6
CONTINUOUS
 10
-0.537512
 20
3.362039
  0
SEQEND
  8
0
  0
POLYLINE
  8
EBENE_1
 62
     1
  6
CONTINUOUS
 66
     1
 40
0.003000
 41
0.003000
 70
     1
  0
VERTEX
  8
EBENE_1
 62
     1
  6
CONTINUOUS
 10
2.541098
 20
3.677000
  0
VERTEX
  8
EBENE_1
 62
     1
  6
CONTINUOUS
 10
2.658244
 20
3.677000
  0
VERTEX
  8
EBENE_1
 62
     1
  6
CONTINUOUS
 10
2.658244
 20
3.362039
  0
VERTEX
  8
EBENE_1
 62
     1
  6
CONTINUOUS
 10
2.541098
 20
3.362039
  0
SEQEND
  8
0
  0
POLYLINE
  8
EBENE_1
 62
     1
  6
CONTINUOUS
 66
     1
 40
0.003000
 41
0.003000
 70
     1
  0
VERTEX
  8
EBENE_1
 62
     1
  6
CONTINUOUS
 10
2.550862
 20
3.667157
  0
VERTEX
  8
EBENE_1
 62
     1
  6
CONTINUOUS
 10
2.648484
 20
3.667157
  0
VERTEX
  8
EBENE_1
 62
     1
  6
CONTINUOUS
 10
2.648484
 20
3.371882
  0
VERTEX
  8
EBENE_1
 62
     1
  6
CONTINUOUS
 10
2.550862
 20
3.371882
  0
SEQEND
  8
0
  0
POLYLINE
  8
EBENE_1
 62
     1
  6
CONTINUOUS
 66
     1
 40
0.003000
 41
0.003000
  0
VERTEX
  8
EBENE_1
 62
     1
  6
CONTINUOUS
 10
2.541098
 20
3.677000
  0
VERTEX
  8
EBENE_1
 62
     1
  6
CONTINUOUS
 10
2.550862
 20
3.667157
  0
SEQEND
  8
0
  0
POLYLINE
  8
EBENE_1
 62
     1
  6
CONTINUOUS
 66
     1
 40
0.003000
 41
0.003000
  0
VERTEX
  8
EBENE_1
 62
     1
  6
CONTINUOUS
 10
2.658244
 20
3.677000
  0
VERTEX
  8
EBENE_1
 62
     1
  6
CONTINUOUS
 10
2.648484
 20
3.667157
  0
SEQEND
  8
0
  0
POLYLINE
  8
EBENE_1
 62
     1
  6
CONTINUOUS
 66
     1
 40
0.003000
 41
0.003000
  0
VERTEX
  8
EBENE_1
 62
     1
  6
CONTINUOUS
 10
2.550862
 20
3.371882
  0
VERTEX
  8
EBENE_1
 62
     1
  6
CONTINUOUS
 10
2.541098
 20
3.362039
  0
SEQEND
  8
0
  0
POLYLINE
  8
EBENE_1
 62
     1
  6
CONTINUOUS
 66
     1
 40
0.003000
 41
0.003000
  0
VERTEX
  8
EBENE_1
 62
     1
  6
CONTINUOUS
 10
2.648484
 20
3.371882
  0
VERTEX
  8
EBENE_1
 62
     1
  6
CONTINUOUS
 10
2.658244
 20
3.362039
  0
SEQEND
  8
0
  0
POLYLINE
  8
EBENE_1
 62
     1
  6
CONTINUOUS
 66
     1
 40
0.003000
 41
0.003000
 70
     1
  0
VERTEX
  8
EBENE_1
 62
     1
  6
CONTINUOUS
 10
2.488382
 20
3.677000
  0
VERTEX
  8
EBENE_1
 62
     1
  6
CONTINUOUS
 10
2.710961
 20
3.677000
  0
VERTEX
  8
EBENE_1
 62
     1
  6
CONTINUOUS
 10
2.710961
 20
3.362039
  0
VERTEX
  8
EBENE_1
 62
     1
  6
CONTINUOUS
 10
2.488382
 20
3.362039
  0
SEQEND
  8
0
  0
POLYLINE
  8
EBENE_1
 62
     1
  6
CONTINUOUS
 66
     1
 40
0.003000
 41
0.003000
 70
     1
  0
VERTEX
  8
EBENE_1
 62
     1
  6
CONTINUOUS
 10
2.537193
 20
3.677000
  0
VERTEX
  8
EBENE_1
 62
     1
  6
CONTINUOUS
 10
2.662150
 20
3.677000
  0
VERTEX
  8
EBENE_1
 62
     1
  6
CONTINUOUS
 10
2.662150
 20
3.362039
  0
VERTEX
  8
EBENE_1
 62
     1
  6
CONTINUOUS
 10
2.537193
 20
3.362039
  0
SEQEND
  8
0
  0
POLYLINE
  8
EBENE_1
 62
     1
  6
CONTINUOUS
 66
     1
 40
0.003000
 41
0.003000
 70
     1
  0
VERTEX
  8
EBENE_1
 62
     1
  6
CONTINUOUS
 10
-2.282555
 20
8.027394
  0
VERTEX
  8
EBENE_1
 62
     1
  6
CONTINUOUS
 10
-1.786488
 20
8.027394
  0
VERTEX
  8
EBENE_1
 62
     1
  6
CONTINUOUS
 10
-1.786488
 20
4.090386
  0
VERTEX
  8
EBENE_1
 62
     1
  6
CONTINUOUS
 10
-2.282555
 20
4.090386
  0
SEQEND
  8
0
  0
POLYLINE
  8
EBENE_1
 62
     1
  6
CONTINUOUS
 66
     1
 40
0.003000
 41
0.003000
 70
     1
  0
VERTEX
  8
EBENE_1
 62
     1
  6
CONTINUOUS
 10
-1.483346
 20
8.027394
  0
VERTEX
  8
EBENE_1
 62
     1
  6
CONTINUOUS
 10
-0.987280
 20
8.027394
  0
VERTEX
  8
EBENE_1
 62
     1
  6
CONTINUOUS
 10
-0.987280
 20
4.090386
  0
VERTEX
  8
EBENE_1
 62
     1
  6
CONTINUOUS
 10
-1.483346
 20
4.090386
  0
SEQEND
  8
0
  0
POLYLINE
  8
EBENE_1
 62
     1
  6
CONTINUOUS
 66
     1
 40
0.003000
 41
0.003000
 70
     1
  0
VERTEX
  8
EBENE_1
 62
     1
  6
CONTINUOUS
 10
-0.684138
 20
8.027394
  0
VERTEX
  8
EBENE_1
 62
     1
  6
CONTINUOUS
 10
-0.188071
 20
8.027394
  0
VERTEX
  8
EBENE_1
 62
     1
  6
CONTINUOUS
 10
-0.188071
 20
4.090386
  0
VERTEX
  8
EBENE_1
 62
     1
  6
CONTINUOUS
 10
-0.684138
 20
4.090386
  0
SEQEND
  8
0
  0
POLYLINE
  8
EBENE_1
 62
     1
  6
CONTINUOUS
 66
     1
 40
0.003000
 41
0.003000
 70
     1
  0
VERTEX
  8
EBENE_1
 62
     1
  6
CONTINUOUS
 10
0.115071
 20
8.027394
  0
VERTEX
  8
EBENE_1
 62
     1
  6
CONTINUOUS
 10
0.611138
 20
8.027394
  0
VERTEX
  8
EBENE_1
 62
     1
  6
CONTINUOUS
 10
0.611138
 20
4.090386
  0
VERTEX
  8
EBENE_1
 62
     1
  6
CONTINUOUS
 10
0.115071
 20
4.090386
  0
SEQEND
  8
0
  0
POLYLINE
  8
EBENE_1
 62
     1
  6
CONTINUOUS
 66
     1
 40
0.003000
 41
0.003000
 70
     1
  0
VERTEX
  8
EBENE_1
 62
     1
  6
CONTINUOUS
 10
0.914280
 20
8.027394
  0
VERTEX
  8
EBENE_1
 62
     1
  6
CONTINUOUS
 10
1.410346
 20
8.027394
  0
VERTEX
  8
EBENE_1
 62
     1
  6
CONTINUOUS
 10
1.410346
 20
4.090386
  0
VERTEX
  8
EBENE_1
 62
     1
  6
CONTINUOUS
 10
0.914280
 20
4.090386
  0
SEQEND
  8
0
  0
POLYLINE
  8
EBENE_1
 62
     1
  6
CONTINUOUS
 66
     1
 40
0.003000
 41
0.003000
 70
     1
  0
VERTEX
  8
EBENE_1
 62
     1
  6
CONTINUOUS
 10
1.713488
 20
8.027394
  0
VERTEX
  8
EBENE_1
 62
     1
  6
CONTINUOUS
 10
2.209555
 20
8.027394
  0
VERTEX
  8
EBENE_1
 62
     1
  6
CONTINUOUS
 10
2.209555
 20
4.090386
  0
VERTEX
  8
EBENE_1
 62
     1
  6
CONTINUOUS
 10
1.713488
 20
4.090386
  0
SEQEND
  8
0
  0
POLYLINE
  8
EBENE_1
 62
     1
  6
CONTINUOUS
 66
     1
 40
0.003000
 41
0.003000
 70
     1
  0
VERTEX
  8
EBENE_1
 62
     1
  6
CONTINUOUS
 10
2.512697
 20
8.027394
  0
VERTEX
  8
EBENE_1
 62
     1
  6
CONTINUOUS
 10
3.008764
 20
8.027394
  0
VERTEX
  8
EBENE_1
 62
     1
  6
CONTINUOUS
 10
3.008764
 20
4.090386
  0
VERTEX
  8
EBENE_1
 62
     1
  6
CONTINUOUS
 10
2.512697
 20
4.090386
  0
SEQEND
  8
0
  0
POLYLINE
  8
EBENE_1
 62
     1
  6
CONTINUOUS
 66
     1
 40
0.003000
 41
0.003000
 70
     1
  0
VERTEX
  8
EBENE_1
 62
     1
  6
CONTINUOUS
 10
-2.597512
 20
8.027394
  0
VERTEX
  8
EBENE_1
 62
     1
  6
CONTINUOUS
 10
3.660283
 20
8.027394
  0
VERTEX
  8
EBENE_1
 62
     1
  6
CONTINUOUS
 10
3.660283
 20
7.909283
  0
VERTEX
  8
EBENE_1
 62
     1
  6
CONTINUOUS
 10
-2.597512
 20
7.909283
  0
SEQEND
  8
0
  0
POLYLINE
  8
EBENE_1
 62
     1
  6
CONTINUOUS
 66
     1
 40
0.003000
 41
0.003000
 70
     1
  0
VERTEX
  8
EBENE_1
 62
     1
  6
CONTINUOUS
 10
-9.339323
 20
3.612039
  0
VERTEX
  8
EBENE_1
 62
     1
  6
CONTINUOUS
 10
-9.379013
 20
3.622816
  0
VERTEX
  8
EBENE_1
 62
     1
  6
CONTINUOUS
 10
-9.407287
 20
3.651090
  0
VERTEX
  8
EBENE_1
 62
     1
  6
CONTINUOUS
 10
-9.418063
 20
3.690780
  0
VERTEX
  8
EBENE_1
 62
     1
  6
CONTINUOUS
 10
-9.407287
 20
3.730469
  0
VERTEX
  8
EBENE_1
 62
     1
  6
CONTINUOUS
 10
-9.379013
 20
3.758743
  0
VERTEX
  8
EBENE_1
 62
     1
  6
CONTINUOUS
 10
-9.339323
 20
3.769520
  0
VERTEX
  8
EBENE_1
 62
     1
  6
CONTINUOUS
 10
-9.299633
 20
3.758743
  0
VERTEX
  8
EBENE_1
 62
     1
  6
CONTINUOUS
 10
-9.271359
 20
3.730469
  0
VERTEX
  8
EBENE_1
 62
     1
  6
CONTINUOUS
 10
-9.260583
 20
3.690780
  0
VERTEX
  8
EBENE_1
 62
     1
  6
CONTINUOUS
 10
-9.271359
 20
3.651090
  0
VERTEX
  8
EBENE_1
 62
     1
  6
CONTINUOUS
 10
-9.299633
 20
3.622816
  0
SEQEND
  8
0
  0
POLYLINE
  8
EBENE_1
 62
     1
  6
CONTINUOUS
 66
     1
 40
0.003000
 41
0.003000
 70
     1
  0
VERTEX
  8
EBENE_1
 62
     1
  6
CONTINUOUS
 10
-9.339323
 20
9.017551
  0
VERTEX
  8
EBENE_1
 62
     1
  6
CONTINUOUS
 10
-9.379013
 20
9.028328
  0
VERTEX
  8
EBENE_1
 62
     1
  6
CONTINUOUS
 10
-9.407287
 20
9.056602
  0
VERTEX
  8
EBENE_1
 62
     1
  6
CONTINUOUS
 10
-9.418063
 20
9.096291
  0
VERTEX
  8
EBENE_1
 62
     1
  6
CONTINUOUS
 10
-9.407287
 20
9.135981
  0
VERTEX
  8
EBENE_1
 62
     1
  6
CONTINUOUS
 10
-9.379013
 20
9.164255
  0
VERTEX
  8
EBENE_1
 62
     1
  6
CONTINUOUS
 10
-9.339323
 20
9.175031
  0
VERTEX
  8
EBENE_1
 62
     1
  6
CONTINUOUS
 10
-9.299633
 20
9.164255
  0
VERTEX
  8
EBENE_1
 62
     1
  6
CONTINUOUS
 10
-9.271359
 20
9.135981
  0
VERTEX
  8
EBENE_1
 62
     1
  6
CONTINUOUS
 10
-9.260583
 20
9.096291
  0
VERTEX
  8
EBENE_1
 62
     1
  6
CONTINUOUS
 10
-9.271359
 20
9.056602
  0
VERTEX
  8
EBENE_1
 62
     1
  6
CONTINUOUS
 10
-9.299633
 20
9.028328
  0
SEQEND
  8
0
  0
POLYLINE
  8
EBENE_1
 62
     1
  6
CONTINUOUS
 66
     1
 40
0.003000
 41
0.003000
 70
     1
  0
VERTEX
  8
EBENE_1
 62
     1
  6
CONTINUOUS
 10
-12.225150
 20
4.551016
  0
VERTEX
  8
EBENE_1
 62
     1
  6
CONTINUOUS
 10
-12.264839
 20
4.561792
  0
VERTEX
  8
EBENE_1
 62
     1
  6
CONTINUOUS
 10
-12.293113
 20
4.590066
  0
VERTEX
  8
EBENE_1
 62
     1
  6
CONTINUOUS
 10
-12.303890
 20
4.629756
  0
VERTEX
  8
EBENE_1
 62
     1
  6
CONTINUOUS
 10
-12.293113
 20
4.669446
  0
VERTEX
  8
EBENE_1
 62
     1
  6
CONTINUOUS
 10
-12.264839
 20
4.697720
  0
VERTEX
  8
EBENE_1
 62
     1
  6
CONTINUOUS
 10
-12.225150
 20
4.708496
  0
VERTEX
  8
EBENE_1
 62
     1
  6
CONTINUOUS
 10
-12.185460
 20
4.697720
  0
VERTEX
  8
EBENE_1
 62
     1
  6
CONTINUOUS
 10
-12.157186
 20
4.669446
  0
VERTEX
  8
EBENE_1
 62
     1
  6
CONTINUOUS
 10
-12.146409
 20
4.629756
  0
VERTEX
  8
EBENE_1
 62
     1
  6
CONTINUOUS
 10
-12.157186
 20
4.590066
  0
VERTEX
  8
EBENE_1
 62
     1
  6
CONTINUOUS
 10
-12.185460
 20
4.561792
  0
SEQEND
  8
0
  0
POLYLINE
  8
EBENE_1
 62
     1
  6
CONTINUOUS
 66
     1
 40
0.003000
 41
0.003000
 70
     1
  0
VERTEX
  8
EBENE_1
 62
     1
  6
CONTINUOUS
 10
-11.843260
 20
9.017551
  0
VERTEX
  8
EBENE_1
 62
     1
  6
CONTINUOUS
 10
-11.882950
 20
9.028328
  0
VERTEX
  8
EBENE_1
 62
     1
  6
CONTINUOUS
 10
-11.911224
 20
9.056602
  0
VERTEX
  8
EBENE_1
 62
     1
  6
CONTINUOUS
 10
-11.922000
 20
9.096291
  0
VERTEX
  8
EBENE_1
 62
     1
  6
CONTINUOUS
 10
-11.911224
 20
9.135981
  0
VERTEX
  8
EBENE_1
 62
     1
  6
CONTINUOUS
 10
-11.882950
 20
9.164255
  0
VERTEX
  8
EBENE_1
 62
     1
  6
CONTINUOUS
 10
-11.843260
 20
9.175031
  0
VERTEX
  8
EBENE_1
 62
     1
  6
CONTINUOUS
 10
-11.803570
 20
9.164255
  0
VERTEX
  8
EBENE_1
 62
     1
  6
CONTINUOUS
 10
-11.775296
 20
9.135981
  0
VERTEX
  8
EBENE_1
 62
     1
  6
CONTINUOUS
 10
-11.764520
 20
9.096291
  0
VERTEX
  8
EBENE_1
 62
     1
  6
CONTINUOUS
 10
-11.775296
 20
9.056602
  0
VERTEX
  8
EBENE_1
 62
     1
  6
CONTINUOUS
 10
-11.803570
 20
9.028328
  0
SEQEND
  8
0
  0
POLYLINE
  8
EBENE_1
 62
     1
  6
CONTINUOUS
 66
     1
 40
0.003000
 41
0.003000
 70
     1
  0
VERTEX
  8
EBENE_1
 62
     1
  6
CONTINUOUS
 10
-2.597512
 20
-8.448980
  0
VERTEX
  8
EBENE_1
 62
     1
  6
CONTINUOUS
 10
3.660283
 20
-8.448980
  0
VERTEX
  8
EBENE_1
 62
     1
  6
CONTINUOUS
 10
3.660283
 20
-8.752130
  0
VERTEX
  8
EBENE_1
 62
     1
  6
CONTINUOUS
 10
3.633342
 20
-8.851352
  0
VERTEX
  8
EBENE_1
 62
     1
  6
CONTINUOUS
 10
3.562656
 20
-8.922039
  0
VERTEX
  8
EBENE_1
 62
     1
  6
CONTINUOUS
 10
3.463433
 20
-8.948980
  0
VERTEX
  8
EBENE_1
 62
     1
  6
CONTINUOUS
 10
-2.400661
 20
-8.948980
  0
VERTEX
  8
EBENE_1
 62
     1
  6
CONTINUOUS
 10
-2.499884
 20
-8.922039
  0
VERTEX
  8
EBENE_1
 62
     1
  6
CONTINUOUS
 10
-2.570570
 20
-8.851352
  0
VERTEX
  8
EBENE_1
 62
     1
  6
CONTINUOUS
 10
-2.597512
 20
-8.752130
  0
SEQEND
  8
0
  0
SOLID
  8
EBENE_1
 62
     7
 10
3.660283
 20
-8.567098
 11
-12.875150
 21
-8.567098
 12
3.660283
 22
1.275425
 13
-12.875150
 23
1.275425
  0
POLYLINE
  8
EBENE_1
 62
     1
  6
CONTINUOUS
 66
     1
 40
0.003000
 41
0.003000
 70
     1
  0
VERTEX
  8
EBENE_1
 62
     1
  6
CONTINUOUS
 10
3.660283
 20
-8.567098
  0
VERTEX
  8
EBENE_1
 62
     1
  6
CONTINUOUS
 10
-12.875150
 20
-8.567098
  0
VERTEX
  8
EBENE_1
 62
     1
  6
CONTINUOUS
 10
-12.875150
 20
1.275425
  0
VERTEX
  8
EBENE_1
 62
     1
  6
CONTINUOUS
 10
3.660283
 20
1.275425
  0
SEQEND
  8
0
  0
SOLID
  8
EBENE_1
 62
     7
 10
3.260283
 20
-8.365988
 11
-8.747591
 21
-8.365988
 12
3.260283
 22
1.240311
 13
-8.747591
 23
1.240311
  0
POLYLINE
  8
EBENE_1
 62
     1
  6
CONTINUOUS
 66
     1
 40
0.003000
 41
0.003000
 70
     1
  0
VERTEX
  8
EBENE_1
 62
     1
  6
CONTINUOUS
 10
3.260283
 20
-8.365988
  0
VERTEX
  8
EBENE_1
 62
     1
  6
CONTINUOUS
 10
-8.747591
 20
-8.365988
  0
VERTEX
  8
EBENE_1
 62
     1
  6
CONTINUOUS
 10
-8.747591
 20
1.240311
  0
VERTEX
  8
EBENE_1
 62
     1
  6
CONTINUOUS
 10
3.260283
 20
1.240311
  0
SEQEND
  8
0
  0
POLYLINE
  8
EBENE_1
 62
     1
  6
CONTINUOUS
 66
     1
 40
0.003000
 41
0.003000
 70
     1
  0
VERTEX
  8
EBENE_1
 62
     1
  6
CONTINUOUS
 10
2.610283
 20
-8.043941
  0
VERTEX
  8
EBENE_1
 62
     1
  6
CONTINUOUS
 10
2.570992
 20
-8.033273
  0
VERTEX
  8
EBENE_1
 62
     1
  6
CONTINUOUS
 10
2.543000
 20
-8.005281
  0
VERTEX
  8
EBENE_1
 62
     1
  6
CONTINUOUS
 10
2.532331
 20
-7.965988
  0
VERTEX
  8
EBENE_1
 62
     1
  6
CONTINUOUS
 10
2.543000
 20
-7.926695
  0
VERTEX
  8
EBENE_1
 62
     1
  6
CONTINUOUS
 10
2.570992
 20
-7.898704
  0
VERTEX
  8
EBENE_1
 62
     1
  6
CONTINUOUS
 10
2.610283
 20
-7.888035
  0
VERTEX
  8
EBENE_1
 62
     1
  6
CONTINUOUS
 10
2.649575
 20
-7.898704
  0
VERTEX
  8
EBENE_1
 62
     1
  6
CONTINUOUS
 10
2.677567
 20
-7.926695
  0
VERTEX
  8
EBENE_1
 62
     1
  6
CONTINUOUS
 10
2.688236
 20
-7.965988
  0
VERTEX
  8
EBENE_1
 62
     1
  6
CONTINUOUS
 10
2.677567
 20
-8.005281
  0
VERTEX
  8
EBENE_1
 62
     1
  6
CONTINUOUS
 10
2.649575
 20
-8.033273
  0
SEQEND
  8
0
  0
POLYLINE
  8
EBENE_1
 62
     1
  6
CONTINUOUS
 66
     1
 40
0.003000
 41
0.003000
 70
     1
  0
VERTEX
  8
EBENE_1
 62
     1
  6
CONTINUOUS
 10
2.610283
 20
0.906059
  0
VERTEX
  8
EBENE_1
 62
     1
  6
CONTINUOUS
 10
2.570992
 20
0.916727
  0
VERTEX
  8
EBENE_1
 62
     1
  6
CONTINUOUS
 10
2.543000
 20
0.944719
  0
VERTEX
  8
EBENE_1
 62
     1
  6
CONTINUOUS
 10
2.532331
 20
0.984012
  0
VERTEX
  8
EBENE_1
 62
     1
  6
CONTINUOUS
 10
2.543000
 20
1.023305
  0
VERTEX
  8
EBENE_1
 62
     1
  6
CONTINUOUS
 10
2.570992
 20
1.051296
  0
VERTEX
  8
EBENE_1
 62
     1
  6
CONTINUOUS
 10
2.610283
 20
1.061965
  0
VERTEX
  8
EBENE_1
 62
     1
  6
CONTINUOUS
 10
2.649575
 20
1.051296
  0
VERTEX
  8
EBENE_1
 62
     1
  6
CONTINUOUS
 10
2.677567
 20
1.023305
  0
VERTEX
  8
EBENE_1
 62
     1
  6
CONTINUOUS
 10
2.688236
 20
0.984012
  0
VERTEX
  8
EBENE_1
 62
     1
  6
CONTINUOUS
 10
2.677567
 20
0.944719
  0
VERTEX
  8
EBENE_1
 62
     1
  6
CONTINUOUS
 10
2.649575
 20
0.916727
  0
SEQEND
  8
0
  0
POLYLINE
  8
EBENE_1
 62
     1
  6
CONTINUOUS
 66
     1
 40
0.003000
 41
0.003000
 70
     1
  0
VERTEX
  8
EBENE_1
 62
     1
  6
CONTINUOUS
 10
2.610283
 20
-1.943941
  0
VERTEX
  8
EBENE_1
 62
     1
  6
CONTINUOUS
 10
2.570992
 20
-1.933273
  0
VERTEX
  8
EBENE_1
 62
     1
  6
CONTINUOUS
 10
2.543000
 20
-1.905281
  0
VERTEX
  8
EBENE_1
 62
     1
  6
CONTINUOUS
 10
2.532331
 20
-1.865988
  0
VERTEX
  8
EBENE_1
 62
     1
  6
CONTINUOUS
 10
2.543000
 20
-1.826695
  0
VERTEX
  8
EBENE_1
 62
     1
  6
CONTINUOUS
 10
2.570992
 20
-1.798704
  0
VERTEX
  8
EBENE_1
 62
     1
  6
CONTINUOUS
 10
2.610283
 20
-1.788035
  0
VERTEX
  8
EBENE_1
 62
     1
  6
CONTINUOUS
 10
2.649575
 20
-1.798704
  0
VERTEX
  8
EBENE_1
 62
     1
  6
CONTINUOUS
 10
2.677567
 20
-1.826695
  0
VERTEX
  8
EBENE_1
 62
     1
  6
CONTINUOUS
 10
2.688236
 20
-1.865988
  0
VERTEX
  8
EBENE_1
 62
     1
  6
CONTINUOUS
 10
2.677567
 20
-1.905281
  0
VERTEX
  8
EBENE_1
 62
     1
  6
CONTINUOUS
 10
2.649575
 20
-1.933273
  0
SEQEND
  8
0
  0
POLYLINE
  8
EBENE_1
 62
     1
  6
CONTINUOUS
 66
     1
 40
0.003000
 41
0.003000
 70
     1
  0
VERTEX
  8
EBENE_1
 62
     1
  6
CONTINUOUS
 10
-8.489717
 20
-7.143941
  0
VERTEX
  8
EBENE_1
 62
     1
  6
CONTINUOUS
 10
-8.529008
 20
-7.133273
  0
VERTEX
  8
EBENE_1
 62
     1
  6
CONTINUOUS
 10
-8.557000
 20
-7.105281
  0
VERTEX
  8
EBENE_1
 62
     1
  6
CONTINUOUS
 10
-8.567669
 20
-7.065988
  0
VERTEX
  8
EBENE_1
 62
     1
  6
CONTINUOUS
 10
-8.557000
 20
-7.026695
  0
VERTEX
  8
EBENE_1
 62
     1
  6
CONTINUOUS
 10
-8.529008
 20
-6.998704
  0
VERTEX
  8
EBENE_1
 62
     1
  6
CONTINUOUS
 10
-8.489717
 20
-6.988035
  0
VERTEX
  8
EBENE_1
 62
     1
  6
CONTINUOUS
 10
-8.450425
 20
-6.998704
  0
VERTEX
  8
EBENE_1
 62
     1
  6
CONTINUOUS
 10
-8.422433
 20
-7.026695
  0
VERTEX
  8
EBENE_1
 62
     1
  6
CONTINUOUS
 10
-8.411764
 20
-7.065988
  0
VERTEX
  8
EBENE_1
 62
     1
  6
CONTINUOUS
 10
-8.422433
 20
-7.105281
  0
VERTEX
  8
EBENE_1
 62
     1
  6
CONTINUOUS
 10
-8.450425
 20
-7.133273
  0
SEQEND
  8
0
  0
POLYLINE
  8
EBENE_1
 62
     1
  6
CONTINUOUS
 66
     1
 40
0.003000
 41
0.003000
 70
     1
  0
VERTEX
  8
EBENE_1
 62
     1
  6
CONTINUOUS
 10
-8.489717
 20
0.906059
  0
VERTEX
  8
EBENE_1
 62
     1
  6
CONTINUOUS
 10
-8.529008
 20
0.916727
  0
VERTEX
  8
EBENE_1
 62
     1
  6
CONTINUOUS
 10
-8.557000
 20
0.944719
  0
VERTEX
  8
EBENE_1
 62
     1
  6
CONTINUOUS
 10
-8.567669
 20
0.984012
  0
VERTEX
  8
EBENE_1
 62
     1
  6
CONTINUOUS
 10
-8.557000
 20
1.023305
  0
VERTEX
  8
EBENE_1
 62
     1
  6
CONTINUOUS
 10
-8.529008
 20
1.051296
  0
VERTEX
  8
EBENE_1
 62
     1
  6
CONTINUOUS
 10
-8.489717
 20
1.061965
  0
VERTEX
  8
EBENE_1
 62
     1
  6
CONTINUOUS
 10
-8.450425
 20
1.051296
  0
VERTEX
  8
EBENE_1
 62
     1
  6
CONTINUOUS
 10
-8.422433
 20
1.023305
  0
VERTEX
  8
EBENE_1
 62
     1
  6
CONTINUOUS
 10
-8.411764
 20
0.984012
  0
VERTEX
  8
EBENE_1
 62
     1
  6
CONTINUOUS
 10
-8.422433
 20
0.944719
  0
VERTEX
  8
EBENE_1
 62
     1
  6
CONTINUOUS
 10
-8.450425
 20
0.916727
  0
SEQEND
  8
0
  0
POLYLINE
  8
EBENE_1
 62
     1
  6
CONTINUOUS
 66
     1
 40
0.003000
 41
0.003000
 70
     1
  0
VERTEX
  8
EBENE_1
 62
     1
  6
CONTINUOUS
 10
-8.489717
 20
-1.943941
  0
VERTEX
  8
EBENE_1
 62
     1
  6
CONTINUOUS
 10
-8.529008
 20
-1.933273
  0
VERTEX
  8
EBENE_1
 62
     1
  6
CONTINUOUS
 10
-8.557000
 20
-1.905281
  0
VERTEX
  8
EBENE_1
 62
     1
  6
CONTINUOUS
 10
-8.567669
 20
-1.865988
  0
VERTEX
  8
EBENE_1
 62
     1
  6
CONTINUOUS
 10
-8.557000
 20
-1.826695
  0
VERTEX
  8
EBENE_1
 62
     1
  6
CONTINUOUS
 10
-8.529008
 20
-1.798704
  0
VERTEX
  8
EBENE_1
 62
     1
  6
CONTINUOUS
 10
-8.489717
 20
-1.788035
  0
VERTEX
  8
EBENE_1
 62
     1
  6
CONTINUOUS
 10
-8.450425
 20
-1.798704
  0
VERTEX
  8
EBENE_1
 62
     1
  6
CONTINUOUS
 10
-8.422433
 20
-1.826695
  0
VERTEX
  8
EBENE_1
 62
     1
  6
CONTINUOUS
 10
-8.411764
 20
-1.865988
  0
VERTEX
  8
EBENE_1
 62
     1
  6
CONTINUOUS
 10
-8.422433
 20
-1.905281
  0
VERTEX
  8
EBENE_1
 62
     1
  6
CONTINUOUS
 10
-8.450425
 20
-1.933273
  0
SEQEND
  8
0
  0
POLYLINE
  8
EBENE_1
 62
     1
  6
CONTINUOUS
 66
     1
 40
0.003000
 41
0.003000
 70
     1
  0
VERTEX
  8
EBENE_1
 62
     1
  6
CONTINUOUS
 10
-2.289717
 20
-8.043941
  0
VERTEX
  8
EBENE_1
 62
     1
  6
CONTINUOUS
 10
-2.329008
 20
-8.033273
  0
VERTEX
  8
EBENE_1
 62
     1
  6
CONTINUOUS
 10
-2.357000
 20
-8.005281
  0
VERTEX
  8
EBENE_1
 62
     1
  6
CONTINUOUS
 10
-2.367669
 20
-7.965988
  0
VERTEX
  8
EBENE_1
 62
     1
  6
CONTINUOUS
 10
-2.357000
 20
-7.926695
  0
VERTEX
  8
EBENE_1
 62
     1
  6
CONTINUOUS
 10
-2.329008
 20
-7.898704
  0
VERTEX
  8
EBENE_1
 62
     1
  6
CONTINUOUS
 10
-2.289717
 20
-7.888035
  0
VERTEX
  8
EBENE_1
 62
     1
  6
CONTINUOUS
 10
-2.250425
 20
-7.898704
  0
VERTEX
  8
EBENE_1
 62
     1
  6
CONTINUOUS
 10
-2.222433
 20
-7.926695
  0
VERTEX
  8
EBENE_1
 62
     1
  6
CONTINUOUS
 10
-2.211764
 20
-7.965988
  0
VERTEX
  8
EBENE_1
 62
     1
  6
CONTINUOUS
 10
-2.222433
 20
-8.005281
  0
VERTEX
  8
EBENE_1
 62
     1
  6
CONTINUOUS
 10
-2.250425
 20
-8.033273
  0
SEQEND
  8
0
  0
POLYLINE
  8
EBENE_1
 62
     1
  6
CONTINUOUS
 66
     1
 40
0.003000
 41
0.003000
 70
     1
  0
VERTEX
  8
EBENE_1
 62
     1
  6
CONTINUOUS
 10
-2.289717
 20
0.906059
  0
VERTEX
  8
EBENE_1
 62
     1
  6
CONTINUOUS
 10
-2.329008
 20
0.916727
  0
VERTEX
  8
EBENE_1
 62
     1
  6
CONTINUOUS
 10
-2.357000
 20
0.944719
  0
VERTEX
  8
EBENE_1
 62
     1
  6
CONTINUOUS
 10
-2.367669
 20
0.984012
  0
VERTEX
  8
EBENE_1
 62
     1
  6
CONTINUOUS
 10
-2.357000
 20
1.023305
  0
VERTEX
  8
EBENE_1
 62
     1
  6
CONTINUOUS
 10
-2.329008
 20
1.051296
  0
VERTEX
  8
EBENE_1
 62
     1
  6
CONTINUOUS
 10
-2.289717
 20
1.061965
  0
VERTEX
  8
EBENE_1
 62
     1
  6
CONTINUOUS
 10
-2.250425
 20
1.051296
  0
VERTEX
  8
EBENE_1
 62
     1
  6
CONTINUOUS
 10
-2.222433
 20
1.023305
  0
VERTEX
  8
EBENE_1
 62
     1
  6
CONTINUOUS
 10
-2.211764
 20
0.984012
  0
VERTEX
  8
EBENE_1
 62
     1
  6
CONTINUOUS
 10
-2.222433
 20
0.944719
  0
VERTEX
  8
EBENE_1
 62
     1
  6
CONTINUOUS
 10
-2.250425
 20
0.916727
  0
SEQEND
  8
0
  0
POLYLINE
  8
EBENE_1
 62
     1
  6
CONTINUOUS
 66
     1
 40
0.003000
 41
0.003000
 70
     1
  0
VERTEX
  8
EBENE_1
 62
     1
  6
CONTINUOUS
 10
-2.289717
 20
-1.943941
  0
VERTEX
  8
EBENE_1
 62
     1
  6
CONTINUOUS
 10
-2.329008
 20
-1.933273
  0
VERTEX
  8
EBENE_1
 62
     1
  6
CONTINUOUS
 10
-2.357000
 20
-1.905281
  0
VERTEX
  8
EBENE_1
 62
     1
  6
CONTINUOUS
 10
-2.367669
 20
-1.865988
  0
VERTEX
  8
EBENE_1
 62
     1
  6
CONTINUOUS
 10
-2.357000
 20
-1.826695
  0
VERTEX
  8
EBENE_1
 62
     1
  6
CONTINUOUS
 10
-2.329008
 20
-1.798704
  0
VERTEX
  8
EBENE_1
 62
     1
  6
CONTINUOUS
 10
-2.289717
 20
-1.788035
  0
VERTEX
  8
EBENE_1
 62
     1
  6
CONTINUOUS
 10
-2.250425
 20
-1.798704
  0
VERTEX
  8
EBENE_1
 62
     1
  6
CONTINUOUS
 10
-2.222433
 20
-1.826695
  0
VERTEX
  8
EBENE_1
 62
     1
  6
CONTINUOUS
 10
-2.211764
 20
-1.865988
  0
VERTEX
  8
EBENE_1
 62
     1
  6
CONTINUOUS
 10
-2.222433
 20
-1.905281
  0
VERTEX
  8
EBENE_1
 62
     1
  6
CONTINUOUS
 10
-2.250425
 20
-1.933273
  0
SEQEND
  8
0
  0
POLYLINE
  8
EBENE_1
 62
     1
  6
CONTINUOUS
 66
     1
 40
0.003000
 41
0.003000
 70
     1
  0
VERTEX
  8
EBENE_1
 62
     1
  6
CONTINUOUS
 10
-0.489717
 20
-8.043941
  0
VERTEX
  8
EBENE_1
 62
     1
  6
CONTINUOUS
 10
-0.529008
 20
-8.033273
  0
VERTEX
  8
EBENE_1
 62
     1
  6
CONTINUOUS
 10
-0.557000
 20
-8.005281
  0
VERTEX
  8
EBENE_1
 62
     1
  6
CONTINUOUS
 10
-0.567669
 20
-7.965988
  0
VERTEX
  8
EBENE_1
 62
     1
  6
CONTINUOUS
 10
-0.557000
 20
-7.926695
  0
VERTEX
  8
EBENE_1
 62
     1
  6
CONTINUOUS
 10
-0.529008
 20
-7.898704
  0
VERTEX
  8
EBENE_1
 62
     1
  6
CONTINUOUS
 10
-0.489717
 20
-7.888035
  0
VERTEX
  8
EBENE_1
 62
     1
  6
CONTINUOUS
 10
-0.450425
 20
-7.898704
  0
VERTEX
  8
EBENE_1
 62
     1
  6
CONTINUOUS
 10
-0.422433
 20
-7.926695
  0
VERTEX
  8
EBENE_1
 62
     1
  6
CONTINUOUS
 10
-0.411764
 20
-7.965988
  0
VERTEX
  8
EBENE_1
 62
     1
  6
CONTINUOUS
 10
-0.422433
 20
-8.005281
  0
VERTEX
  8
EBENE_1
 62
     1
  6
CONTINUOUS
 10
-0.450425
 20
-8.033273
  0
SEQEND
  8
0
  0
SOLID
  8
EBENE_1
 62
     7
 10
-12.475150
 20
-8.365988
 11
-9.089323
 21
-8.365988
 12
-12.475150
 22
-2.854177
 13
-9.089323
 23
-2.854177
  0
POLYLINE
  8
EBENE_1
 62
     3
  6
CONTINUOUS
 66
     1
 40
0.003000
 41
0.003000
 70
     1
  0
VERTEX
  8
EBENE_1
 62
     3
  6
CONTINUOUS
 10
-12.475150
 20
-8.365988
  0
VERTEX
  8
EBENE_1
 62
     3
  6
CONTINUOUS
 10
-9.089323
 20
-8.365988
  0
VERTEX
  8
EBENE_1
 62
     3
  6
CONTINUOUS
 10
-9.089323
 20
-2.854177
  0
VERTEX
  8
EBENE_1
 62
     3
  6
CONTINUOUS
 10
-12.475150
 20
-2.854177
  0
SEQEND
  8
0
  0
SOLID
  8
EBENE_1
 62
     7
 10
-2.585701
 20
-8.567098
 11
-8.835701
 21
-8.567098
 12
-2.585701
 22
-8.448988
 13
-8.835701
 23
-8.448988
  0
POLYLINE
  8
EBENE_1
 62
     1
  6
CONTINUOUS
 66
     1
 40
0.003000
 41
0.003000
 70
     1
  0
VERTEX
  8
EBENE_1
 62
     1
  6
CONTINUOUS
 10
-2.585701
 20
-8.567098
  0
VERTEX
  8
EBENE_1
 62
     1
  6
CONTINUOUS
 10
-8.835701
 20
-8.567098
  0
VERTEX
  8
EBENE_1
 62
     1
  6
CONTINUOUS
 10
-8.835701
 20
-8.448988
  0
VERTEX
  8
EBENE_1
 62
     1
  6
CONTINUOUS
 10
-2.585701
 20
-8.448988
  0
SEQEND
  8
0
  0
SOLID
  8
EBENE_1
 62
     7
 10
-2.282555
 20
-8.448980
 11
-1.786488
 21
-8.448980
 12
-2.282555
 22
-8.862366
 13
-1.786488
 23
-8.862366
  0
POLYLINE
  8
EBENE_1
 62
     1
  6
CONTINUOUS
 66
     1
 40
0.003000
 41
0.003000
 70
     1
  0
VERTEX
  8
EBENE_1
 62
     1
  6
CONTINUOUS
 10
-2.282555
 20
-8.448980
  0
VERTEX
  8
EBENE_1
 62
     1
  6
CONTINUOUS
 10
-1.786488
 20
-8.448980
  0
VERTEX
  8
EBENE_1
 62
     1
  6
CONTINUOUS
 10
-1.786488
 20
-8.862366
  0
VERTEX
  8
EBENE_1
 62
     1
  6
CONTINUOUS
 10
-2.282555
 20
-8.862366
  0
SEQEND
  8
0
  0
SOLID
  8
EBENE_1
 62
     7
 10
-1.483346
 20
-8.448980
 11
-0.987280
 21
-8.448980
 12
-1.483346
 22
-8.862366
 13
-0.987280
 23
-8.862366
  0
POLYLINE
  8
EBENE_1
 62
     1
  6
CONTINUOUS
 66
     1
 40
0.003000
 41
0.003000
 70
     1
  0
VERTEX
  8
EBENE_1
 62
     1
  6
CONTINUOUS
 10
-1.483346
 20
-8.448980
  0
VERTEX
  8
EBENE_1
 62
     1
  6
CONTINUOUS
 10
-0.987280
 20
-8.448980
  0
VERTEX
  8
EBENE_1
 62
     1
  6
CONTINUOUS
 10
-0.987280
 20
-8.862366
  0
VERTEX
  8
EBENE_1
 62
     1
  6
CONTINUOUS
 10
-1.483346
 20
-8.862366
  0
SEQEND
  8
0
  0
SOLID
  8
EBENE_1
 62
     7
 10
-0.684138
 20
-8.448980
 11
-0.188071
 21
-8.448980
 12
-0.684138
 22
-8.862366
 13
-0.188071
 23
-8.862366
  0
POLYLINE
  8
EBENE_1
 62
     1
  6
CONTINUOUS
 66
     1
 40
0.003000
 41
0.003000
 70
     1
  0
VERTEX
  8
EBENE_1
 62
     1
  6
CONTINUOUS
 10
-0.684138
 20
-8.448980
  0
VERTEX
  8
EBENE_1
 62
     1
  6
CONTINUOUS
 10
-0.188071
 20
-8.448980
  0
VERTEX
  8
EBENE_1
 62
     1
  6
CONTINUOUS
 10
-0.188071
 20
-8.862366
  0
VERTEX
  8
EBENE_1
 62
     1
  6
CONTINUOUS
 10
-0.684138
 20
-8.862366
  0
SEQEND
  8
0
  0
SOLID
  8
EBENE_1
 62
     7
 10
0.115071
 20
-8.448980
 11
0.611138
 21
-8.448980
 12
0.115071
 22
-8.862366
 13
0.611138
 23
-8.862366
  0
POLYLINE
  8
EBENE_1
 62
     1
  6
CONTINUOUS
 66
     1
 40
0.003000
 41
0.003000
 70
     1
  0
VERTEX
  8
EBENE_1
 62
     1
  6
CONTINUOUS
 10
0.115071
 20
-8.448980
  0
VERTEX
  8
EBENE_1
 62
     1
  6
CONTINUOUS
 10
0.611138
 20
-8.448980
  0
VERTEX
  8
EBENE_1
 62
     1
  6
CONTINUOUS
 10
0.611138
 20
-8.862366
  0
VERTEX
  8
EBENE_1
 62
     1
  6
CONTINUOUS
 10
0.115071
 20
-8.862366
  0
SEQEND
  8
0
  0
SOLID
  8
EBENE_1
 62
     7
 10
0.914280
 20
-8.448980
 11
1.410346
 21
-8.448980
 12
0.914280
 22
-8.862366
 13
1.410346
 23
-8.862366
  0
POLYLINE
  8
EBENE_1
 62
     1
  6
CONTINUOUS
 66
     1
 40
0.003000
 41
0.003000
 70
     1
  0
VERTEX
  8
EBENE_1
 62
     1
  6
CONTINUOUS
 10
0.914280
 20
-8.448980
  0
VERTEX
  8
EBENE_1
 62
     1
  6
CONTINUOUS
 10
1.410346
 20
-8.448980
  0
VERTEX
  8
EBENE_1
 62
     1
  6
CONTINUOUS
 10
1.410346
 20
-8.862366
  0
VERTEX
  8
EBENE_1
 62
     1
  6
CONTINUOUS
 10
0.914280
 20
-8.862366
  0
SEQEND
  8
0
  0
SOLID
  8
EBENE_1
 62
     7
 10
1.713488
 20
-8.448980
 11
2.209555
 21
-8.448980
 12
1.713488
 22
-8.862366
 13
2.209555
 23
-8.862366
  0
POLYLINE
  8
EBENE_1
 62
     1
  6
CONTINUOUS
 66
     1
 40
0.003000
 41
0.003000
 70
     1
  0
VERTEX
  8
EBENE_1
 62
     1
  6
CONTINUOUS
 10
1.713488
 20
-8.448980
  0
VERTEX
  8
EBENE_1
 62
     1
  6
CONTINUOUS
 10
2.209555
 20
-8.448980
  0
VERTEX
  8
EBENE_1
 62
     1
  6
CONTINUOUS
 10
2.209555
 20
-8.862366
  0
VERTEX
  8
EBENE_1
 62
     1
  6
CONTINUOUS
 10
1.713488
 20
-8.862366
  0
SEQEND
  8
0
  0
SOLID
  8
EBENE_1
 62
     7
 10
2.512697
 20
-8.448980
 11
3.008764
 21
-8.448980
 12
2.512697
 22
-8.862366
 13
3.008764
 23
-8.862366
  0
POLYLINE
  8
EBENE_1
 62
     1
  6
CONTINUOUS
 66
     1
 40
0.003000
 41
0.003000
 70
     1
  0
VERTEX
  8
EBENE_1
 62
     1
  6
CONTINUOUS
 10
2.512697
 20
-8.448980
  0
VERTEX
  8
EBENE_1
 62
     1
  6
CONTINUOUS
 10
3.008764
 20
-8.448980
  0
VERTEX
  8
EBENE_1
 62
     1
  6
CONTINUOUS
 10
3.008764
 20
-8.862366
  0
VERTEX
  8
EBENE_1
 62
     1
  6
CONTINUOUS
 10
2.512697
 20
-8.862366
  0
SEQEND
  8
0
  0
POLYLINE
  8
EBENE_1
 62
     1
  6
CONTINUOUS
 66
     1
 40
0.003000
 41
0.003000
 70
     1
  0
VERTEX
  8
EBENE_1
 62
     1
  6
CONTINUOUS
 10
3.660283
 20
-8.567098
  0
VERTEX
  8
EBENE_1
 62
     1
  6
CONTINUOUS
 10
-12.875150
 20
-8.567098
  0
VERTEX
  8
EBENE_1
 62
     1
  6
CONTINUOUS
 10
-12.875150
 20
-8.448988
  0
VERTEX
  8
EBENE_1
 62
     1
  6
CONTINUOUS
 10
3.660283
 20
-8.448988
  0
SEQEND
  8
0
  0
POLYLINE
  8
EBENE_1
 62
     1
  6
CONTINUOUS
 66
     1
 40
0.003000
 41
0.003000
 70
     1
  0
VERTEX
  8
EBENE_1
 62
     1
  6
CONTINUOUS
 10
-1.634917
 20
-8.586776
  0
VERTEX
  8
EBENE_1
 62
     1
  6
CONTINUOUS
 10
-1.605150
 20
-8.594858
  0
VERTEX
  8
EBENE_1
 62
     1
  6
CONTINUOUS
 10
-1.583944
 20
-8.616063
  0
VERTEX
  8
EBENE_1
 62
     1
  6
CONTINUOUS
 10
-1.575862
 20
-8.645831
  0
VERTEX
  8
EBENE_1
 62
     1
  6
CONTINUOUS
 10
-1.583944
 20
-8.675598
  0
VERTEX
  8
EBENE_1
 62
     1
  6
CONTINUOUS
 10
-1.605150
 20
-8.696804
  0
VERTEX
  8
EBENE_1
 62
     1
  6
CONTINUOUS
 10
-1.634917
 20
-8.704886
  0
VERTEX
  8
EBENE_1
 62
     1
  6
CONTINUOUS
 10
-1.664685
 20
-8.696804
  0
VERTEX
  8
EBENE_1
 62
     1
  6
CONTINUOUS
 10
-1.685890
 20
-8.675598
  0
VERTEX
  8
EBENE_1
 62
     1
  6
CONTINUOUS
 10
-1.693972
 20
-8.645831
  0
VERTEX
  8
EBENE_1
 62
     1
  6
CONTINUOUS
 10
-1.685890
 20
-8.616063
  0
VERTEX
  8
EBENE_1
 62
     1
  6
CONTINUOUS
 10
-1.664685
 20
-8.594858
  0
SEQEND
  8
0
  0
POLYLINE
  8
EBENE_1
 62
     1
  6
CONTINUOUS
 66
     1
 40
0.003000
 41
0.003000
 70
     1
  0
VERTEX
  8
EBENE_1
 62
     1
  6
CONTINUOUS
 10
-0.835709
 20
-8.586776
  0
VERTEX
  8
EBENE_1
 62
     1
  6
CONTINUOUS
 10
-0.805941
 20
-8.594858
  0
VERTEX
  8
EBENE_1
 62
     1
  6
CONTINUOUS
 10
-0.784736
 20
-8.616063
  0
VERTEX
  8
EBENE_1
 62
     1
  6
CONTINUOUS
 10
-0.776654
 20
-8.645831
  0
VERTEX
  8
EBENE_1
 62
     1
  6
CONTINUOUS
 10
-0.784736
 20
-8.675598
  0
VERTEX
  8
EBENE_1
 62
     1
  6
CONTINUOUS
 10
-0.805941
 20
-8.696804
  0
VERTEX
  8
EBENE_1
 62
     1
  6
CONTINUOUS
 10
-0.835709
 20
-8.704886
  0
VERTEX
  8
EBENE_1
 62
     1
  6
CONTINUOUS
 10
-0.865476
 20
-8.696804
  0
VERTEX
  8
EBENE_1
 62
     1
  6
CONTINUOUS
 10
-0.886682
 20
-8.675598
  0
VERTEX
  8
EBENE_1
 62
     1
  6
CONTINUOUS
 10
-0.894764
 20
-8.645831
  0
VERTEX
  8
EBENE_1
 62
     1
  6
CONTINUOUS
 10
-0.886682
 20
-8.616063
  0
VERTEX
  8
EBENE_1
 62
     1
  6
CONTINUOUS
 10
-0.865476
 20
-8.594858
  0
SEQEND
  8
0
  0
POLYLINE
  8
EBENE_1
 62
     1
  6
CONTINUOUS
 66
     1
 40
0.003000
 41
0.003000
 70
     1
  0
VERTEX
  8
EBENE_1
 62
     1
  6
CONTINUOUS
 10
-0.036500
 20
-8.586776
  0
VERTEX
  8
EBENE_1
 62
     1
  6
CONTINUOUS
 10
-0.006733
 20
-8.594858
  0
VERTEX
  8
EBENE_1
 62
     1
  6
CONTINUOUS
 10
0.014473
 20
-8.616063
  0
VERTEX
  8
EBENE_1
 62
     1
  6
CONTINUOUS
 10
0.022555
 20
-8.645831
  0
VERTEX
  8
EBENE_1
 62
     1
  6
CONTINUOUS
 10
0.014473
 20
-8.675598
  0
VERTEX
  8
EBENE_1
 62
     1
  6
CONTINUOUS
 10
-0.006733
 20
-8.696804
  0
VERTEX
  8
EBENE_1
 62
     1
  6
CONTINUOUS
 10
-0.036500
 20
-8.704886
  0
VERTEX
  8
EBENE_1
 62
     1
  6
CONTINUOUS
 10
-0.066267
 20
-8.696804
  0
VERTEX
  8
EBENE_1
 62
     1
  6
CONTINUOUS
 10
-0.087473
 20
-8.675598
  0
VERTEX
  8
EBENE_1
 62
     1
  6
CONTINUOUS
 10
-0.095555
 20
-8.645831
  0
VERTEX
  8
EBENE_1
 62
     1
  6
CONTINUOUS
 10
-0.087473
 20
-8.616063
  0
VERTEX
  8
EBENE_1
 62
     1
  6
CONTINUOUS
 10
-0.066267
 20
-8.594858
  0
SEQEND
  8
0
  0
POLYLINE
  8
EBENE_1
 62
     1
  6
CONTINUOUS
 66
     1
 40
0.003000
 41
0.003000
 70
     1
  0
VERTEX
  8
EBENE_1
 62
     1
  6
CONTINUOUS
 10
0.762709
 20
-8.586776
  0
VERTEX
  8
EBENE_1
 62
     1
  6
CONTINUOUS
 10
0.792476
 20
-8.594858
  0
VERTEX
  8
EBENE_1
 62
     1
  6
CONTINUOUS
 10
0.813682
 20
-8.616063
  0
VERTEX
  8
EBENE_1
 62
     1
  6
CONTINUOUS
 10
0.821764
 20
-8.645831
  0
VERTEX
  8
EBENE_1
 62
     1
  6
CONTINUOUS
 10
0.813682
 20
-8.675598
  0
VERTEX
  8
EBENE_1
 62
     1
  6
CONTINUOUS
 10
0.792476
 20
-8.696804
  0
VERTEX
  8
EBENE_1
 62
     1
  6
CONTINUOUS
 10
0.762709
 20
-8.704886
  0
VERTEX
  8
EBENE_1
 62
     1
  6
CONTINUOUS
 10
0.732941
 20
-8.696804
  0
VERTEX
  8
EBENE_1
 62
     1
  6
CONTINUOUS
 10
0.711736
 20
-8.675598
  0
VERTEX
  8
EBENE_1
 62
     1
  6
CONTINUOUS
 10
0.703654
 20
-8.645831
  0
VERTEX
  8
EBENE_1
 62
     1
  6
CONTINUOUS
 10
0.711736
 20
-8.616063
  0
VERTEX
  8
EBENE_1
 62
     1
  6
CONTINUOUS
 10
0.732941
 20
-8.594858
  0
SEQEND
  8
0
  0
POLYLINE
  8
EBENE_1
 62
     1
  6
CONTINUOUS
 66
     1
 40
0.003000
 41
0.003000
 70
     1
  0
VERTEX
  8
EBENE_1
 62
     1
  6
CONTINUOUS
 10
1.561917
 20
-8.586776
  0
VERTEX
  8
EBENE_1
 62
     1
  6
CONTINUOUS
 10
1.591685
 20
-8.594858
  0
VERTEX
  8
EBENE_1
 62
     1
  6
CONTINUOUS
 10
1.612890
 20
-8.616063
  0
VERTEX
  8
EBENE_1
 62
     1
  6
CONTINUOUS
 10
1.620972
 20
-8.645831
  0
VERTEX
  8
EBENE_1
 62
     1
  6
CONTINUOUS
 10
1.612890
 20
-8.675598
  0
VERTEX
  8
EBENE_1
 62
     1
  6
CONTINUOUS
 10
1.591685
 20
-8.696804
  0
VERTEX
  8
EBENE_1
 62
     1
  6
CONTINUOUS
 10
1.561917
 20
-8.704886
  0
VERTEX
  8
EBENE_1
 62
     1
  6
CONTINUOUS
 10
1.532150
 20
-8.696804
  0
VERTEX
  8
EBENE_1
 62
     1
  6
CONTINUOUS
 10
1.510944
 20
-8.675598
  0
VERTEX
  8
EBENE_1
 62
     1
  6
CONTINUOUS
 10
1.502862
 20
-8.645831
  0
VERTEX
  8
EBENE_1
 62
     1
  6
CONTINUOUS
 10
1.510944
 20
-8.616063
  0
VERTEX
  8
EBENE_1
 62
     1
  6
CONTINUOUS
 10
1.532150
 20
-8.594858
  0
SEQEND
  8
0
  0
POLYLINE
  8
EBENE_1
 62
     1
  6
CONTINUOUS
 66
     1
 40
0.003000
 41
0.003000
 70
     1
  0
VERTEX
  8
EBENE_1
 62
     1
  6
CONTINUOUS
 10
2.361126
 20
-8.586776
  0
VERTEX
  8
EBENE_1
 62
     1
  6
CONTINUOUS
 10
2.390893
 20
-8.594858
  0
VERTEX
  8
EBENE_1
 62
     1
  6
CONTINUOUS
 10
2.412099
 20
-8.616063
  0
VERTEX
  8
EBENE_1
 62
     1
  6
CONTINUOUS
 10
2.420181
 20
-8.645831
  0
VERTEX
  8
EBENE_1
 62
     1
  6
CONTINUOUS
 10
2.412099
 20
-8.675598
  0
VERTEX
  8
EBENE_1
 62
     1
  6
CONTINUOUS
 10
2.390893
 20
-8.696804
  0
VERTEX
  8
EBENE_1
 62
     1
  6
CONTINUOUS
 10
2.361126
 20
-8.704886
  0
VERTEX
  8
EBENE_1
 62
     1
  6
CONTINUOUS
 10
2.331359
 20
-8.696804
  0
VERTEX
  8
EBENE_1
 62
     1
  6
CONTINUOUS
 10
2.310153
 20
-8.675598
  0
VERTEX
  8
EBENE_1
 62
     1
  6
CONTINUOUS
 10
2.302071
 20
-8.645831
  0
VERTEX
  8
EBENE_1
 62
     1
  6
CONTINUOUS
 10
2.310153
 20
-8.616063
  0
VERTEX
  8
EBENE_1
 62
     1
  6
CONTINUOUS
 10
2.331359
 20
-8.594858
  0
SEQEND
  8
0
  0
POLYLINE
  8
EBENE_1
 62
     1
  6
CONTINUOUS
 66
     1
 40
0.003000
 41
0.003000
 70
     1
  0
VERTEX
  8
EBENE_1
 62
     1
  6
CONTINUOUS
 10
-2.434126
 20
-8.586776
  0
VERTEX
  8
EBENE_1
 62
     1
  6
CONTINUOUS
 10
-2.404359
 20
-8.594858
  0
VERTEX
  8
EBENE_1
 62
     1
  6
CONTINUOUS
 10
-2.383153
 20
-8.616063
  0
VERTEX
  8
EBENE_1
 62
     1
  6
CONTINUOUS
 10
-2.375071
 20
-8.645831
  0
VERTEX
  8
EBENE_1
 62
     1
  6
CONTINUOUS
 10
-2.383153
 20
-8.675598
  0
VERTEX
  8
EBENE_1
 62
     1
  6
CONTINUOUS
 10
-2.404359
 20
-8.696804
  0
VERTEX
  8
EBENE_1
 62
     1
  6
CONTINUOUS
 10
-2.434126
 20
-8.704886
  0
VERTEX
  8
EBENE_1
 62
     1
  6
CONTINUOUS
 10
-2.463893
 20
-8.696804
  0
VERTEX
  8
EBENE_1
 62
     1
  6
CONTINUOUS
 10
-2.485099
 20
-8.675598
  0
VERTEX
  8
EBENE_1
 62
     1
  6
CONTINUOUS
 10
-2.493181
 20
-8.645831
  0
VERTEX
  8
EBENE_1
 62
     1
  6
CONTINUOUS
 10
-2.485099
 20
-8.616063
  0
VERTEX
  8
EBENE_1
 62
     1
  6
CONTINUOUS
 10
-2.463893
 20
-8.594858
  0
SEQEND
  8
0
  0
POLYLINE
  8
EBENE_1
 62
     1
  6
CONTINUOUS
 66
     1
 40
0.003000
 41
0.003000
 70
     1
  0
VERTEX
  8
EBENE_1
 62
     1
  6
CONTINUOUS
 10
4.722709
 20
3.677000
  0
VERTEX
  8
EBENE_1
 62
     1
  6
CONTINUOUS
 10
14.329008
 20
3.677000
  0
VERTEX
  8
EBENE_1
 62
     1
  6
CONTINUOUS
 10
14.329008
 20
3.755740
  0
VERTEX
  8
EBENE_1
 62
     1
  6
CONTINUOUS
 10
4.722709
 20
3.755740
  0
SEQEND
  8
0
  0
POLYLINE
  8
EBENE_1
 62
     3
  6
CONTINUOUS
 66
     1
 40
0.003000
 41
0.003000
 70
     1
  0
VERTEX
  8
EBENE_1
 62
     3
  6
CONTINUOUS
 10
8.894283
 20
9.346291
  0
VERTEX
  8
EBENE_1
 62
     3
  6
CONTINUOUS
 10
14.406094
 20
9.346291
  0
VERTEX
  8
EBENE_1
 62
     3
  6
CONTINUOUS
 10
14.406094
 20
3.440780
  0
VERTEX
  8
EBENE_1
 62
     3
  6
CONTINUOUS
 10
8.894283
 20
3.440780
  0
SEQEND
  8
0
  0
POLYLINE
  8
EBENE_1
 62
     1
  6
CONTINUOUS
 66
     1
 40
0.003000
 41
0.003000
 70
     1
  0
VERTEX
  8
EBENE_1
 62
     1
  6
CONTINUOUS
 10
13.988063
 20
3.677000
  0
VERTEX
  8
EBENE_1
 62
     1
  6
CONTINUOUS
 10
13.869953
 20
3.677000
  0
VERTEX
  8
EBENE_1
 62
     1
  6
CONTINUOUS
 10
13.869953
 20
3.362039
  0
VERTEX
  8
EBENE_1
 62
     1
  6
CONTINUOUS
 10
13.988063
 20
3.362039
  0
SEQEND
  8
0
  0
POLYLINE
  8
EBENE_1
 62
     1
  6
CONTINUOUS
 66
     1
 40
0.003000
 41
0.003000
 70
     1
  0
VERTEX
  8
EBENE_1
 62
     1
  6
CONTINUOUS
 10
13.978220
 20
3.667157
  0
VERTEX
  8
EBENE_1
 62
     1
  6
CONTINUOUS
 10
13.879795
 20
3.667157
  0
VERTEX
  8
EBENE_1
 62
     1
  6
CONTINUOUS
 10
13.879795
 20
3.371882
  0
VERTEX
  8
EBENE_1
 62
     1
  6
CONTINUOUS
 10
13.978220
 20
3.371882
  0
SEQEND
  8
0
  0
POLYLINE
  8
EBENE_1
 62
     1
  6
CONTINUOUS
 66
     1
 40
0.003000
 41
0.003000
  0
VERTEX
  8
EBENE_1
 62
     1
  6
CONTINUOUS
 10
13.988063
 20
3.677000
  0
VERTEX
  8
EBENE_1
 62
     1
  6
CONTINUOUS
 10
13.978220
 20
3.667157
  0
SEQEND
  8
0
  0
POLYLINE
  8
EBENE_1
 62
     1
  6
CONTINUOUS
 66
     1
 40
0.003000
 41
0.003000
  0
VERTEX
  8
EBENE_1
 62
     1
  6
CONTINUOUS
 10
13.869953
 20
3.677000
  0
VERTEX
  8
EBENE_1
 62
     1
  6
CONTINUOUS
 10
13.879795
 20
3.667157
  0
SEQEND
  8
0
  0
POLYLINE
  8
EBENE_1
 62
     1
  6
CONTINUOUS
 66
     1
 40
0.003000
 41
0.003000
  0
VERTEX
  8
EBENE_1
 62
     1
  6
CONTINUOUS
 10
13.978220
 20
3.371882
  0
VERTEX
  8
EBENE_1
 62
     1
  6
CONTINUOUS
 10
13.988063
 20
3.362039
  0
SEQEND
  8
0
  0
POLYLINE
  8
EBENE_1
 62
     1
  6
CONTINUOUS
 66
     1
 40
0.003000
 41
0.003000
  0
VERTEX
  8
EBENE_1
 62
     1
  6
CONTINUOUS
 10
13.879795
 20
3.371882
  0
VERTEX
  8
EBENE_1
 62
     1
  6
CONTINUOUS
 10
13.869953
 20
3.362039
  0
SEQEND
  8
0
  0
POLYLINE
  8
EBENE_1
 62
     1
  6
CONTINUOUS
 66
     1
 40
0.003000
 41
0.003000
 70
     1
  0
VERTEX
  8
EBENE_1
 62
     1
  6
CONTINUOUS
 10
14.041213
 20
3.677000
  0
VERTEX
  8
EBENE_1
 62
     1
  6
CONTINUOUS
 10
13.816803
 20
3.677000
  0
VERTEX
  8
EBENE_1
 62
     1
  6
CONTINUOUS
 10
13.816803
 20
3.362039
  0
VERTEX
  8
EBENE_1
 62
     1
  6
CONTINUOUS
 10
14.041213
 20
3.362039
  0
SEQEND
  8
0
  0
POLYLINE
  8
EBENE_1
 62
     1
  6
CONTINUOUS
 66
     1
 40
0.003000
 41
0.003000
 70
     1
  0
VERTEX
  8
EBENE_1
 62
     1
  6
CONTINUOUS
 10
13.992000
 20
3.677000
  0
VERTEX
  8
EBENE_1
 62
     1
  6
CONTINUOUS
 10
13.866016
 20
3.677000
  0
VERTEX
  8
EBENE_1
 62
     1
  6
CONTINUOUS
 10
13.866016
 20
3.362039
  0
VERTEX
  8
EBENE_1
 62
     1
  6
CONTINUOUS
 10
13.992000
 20
3.362039
  0
SEQEND
  8
0
  0
POLYLINE
  8
EBENE_1
 62
     1
  6
CONTINUOUS
 66
     1
 40
0.003000
 41
0.003000
 70
     1
  0
VERTEX
  8
EBENE_1
 62
     1
  6
CONTINUOUS
 10
7.882150
 20
3.677000
  0
VERTEX
  8
EBENE_1
 62
     1
  6
CONTINUOUS
 10
7.764039
 20
3.677000
  0
VERTEX
  8
EBENE_1
 62
     1
  6
CONTINUOUS
 10
7.764039
 20
3.362039
  0
VERTEX
  8
EBENE_1
 62
     1
  6
CONTINUOUS
 10
7.882150
 20
3.362039
  0
SEQEND
  8
0
  0
POLYLINE
  8
EBENE_1
 62
     1
  6
CONTINUOUS
 66
     1
 40
0.003000
 41
0.003000
 70
     1
  0
VERTEX
  8
EBENE_1
 62
     1
  6
CONTINUOUS
 10
7.872307
 20
3.667157
  0
VERTEX
  8
EBENE_1
 62
     1
  6
CONTINUOUS
 10
7.773882
 20
3.667157
  0
VERTEX
  8
EBENE_1
 62
     1
  6
CONTINUOUS
 10
7.773882
 20
3.371882
  0
VERTEX
  8
EBENE_1
 62
     1
  6
CONTINUOUS
 10
7.872307
 20
3.371882
  0
SEQEND
  8
0
  0
POLYLINE
  8
EBENE_1
 62
     1
  6
CONTINUOUS
 66
     1
 40
0.003000
 41
0.003000
  0
VERTEX
  8
EBENE_1
 62
     1
  6
CONTINUOUS
 10
7.882150
 20
3.677000
  0
VERTEX
  8
EBENE_1
 62
     1
  6
CONTINUOUS
 10
7.872307
 20
3.667157
  0
SEQEND
  8
0
  0
POLYLINE
  8
EBENE_1
 62
     1
  6
CONTINUOUS
 66
     1
 40
0.003000
 41
0.003000
  0
VERTEX
  8
EBENE_1
 62
     1
  6
CONTINUOUS
 10
7.764039
 20
3.677000
  0
VERTEX
  8
EBENE_1
 62
     1
  6
CONTINUOUS
 10
7.773882
 20
3.667157
  0
SEQEND
  8
0
  0
POLYLINE
  8
EBENE_1
 62
     1
  6
CONTINUOUS
 66
     1
 40
0.003000
 41
0.003000
  0
VERTEX
  8
EBENE_1
 62
     1
  6
CONTINUOUS
 10
7.872307
 20
3.371882
  0
VERTEX
  8
EBENE_1
 62
     1
  6
CONTINUOUS
 10
7.882150
 20
3.362039
  0
SEQEND
  8
0
  0
POLYLINE
  8
EBENE_1
 62
     1
  6
CONTINUOUS
 66
     1
 40
0.003000
 41
0.003000
  0
VERTEX
  8
EBENE_1
 62
     1
  6
CONTINUOUS
 10
7.773882
 20
3.371882
  0
VERTEX
  8
EBENE_1
 62
     1
  6
CONTINUOUS
 10
7.764039
 20
3.362039
  0
SEQEND
  8
0
  0
POLYLINE
  8
EBENE_1
 62
     1
  6
CONTINUOUS
 66
     1
 40
0.003000
 41
0.003000
 70
     1
  0
VERTEX
  8
EBENE_1
 62
     1
  6
CONTINUOUS
 10
7.935299
 20
3.677000
  0
VERTEX
  8
EBENE_1
 62
     1
  6
CONTINUOUS
 10
7.710890
 20
3.677000
  0
VERTEX
  8
EBENE_1
 62
     1
  6
CONTINUOUS
 10
7.710890
 20
3.362039
  0
VERTEX
  8
EBENE_1
 62
     1
  6
CONTINUOUS
 10
7.935299
 20
3.362039
  0
SEQEND
  8
0
  0
POLYLINE
  8
EBENE_1
 62
     1
  6
CONTINUOUS
 66
     1
 40
0.003000
 41
0.003000
 70
     1
  0
VERTEX
  8
EBENE_1
 62
     1
  6
CONTINUOUS
 10
7.886087
 20
3.677000
  0
VERTEX
  8
EBENE_1
 62
     1
  6
CONTINUOUS
 10
7.760102
 20
3.677000
  0
VERTEX
  8
EBENE_1
 62
     1
  6
CONTINUOUS
 10
7.760102
 20
3.362039
  0
VERTEX
  8
EBENE_1
 62
     1
  6
CONTINUOUS
 10
7.886087
 20
3.362039
  0
SEQEND
  8
0
  0
POLYLINE
  8
EBENE_1
 62
     1
  6
CONTINUOUS
 66
     1
 40
0.003000
 41
0.003000
 70
     1
  0
VERTEX
  8
EBENE_1
 62
     1
  6
CONTINUOUS
 10
5.031665
 20
3.677000
  0
VERTEX
  8
EBENE_1
 62
     1
  6
CONTINUOUS
 10
4.914520
 20
3.677000
  0
VERTEX
  8
EBENE_1
 62
     1
  6
CONTINUOUS
 10
4.914520
 20
3.362039
  0
VERTEX
  8
EBENE_1
 62
     1
  6
CONTINUOUS
 10
5.031665
 20
3.362039
  0
SEQEND
  8
0
  0
POLYLINE
  8
EBENE_1
 62
     1
  6
CONTINUOUS
 66
     1
 40
0.003000
 41
0.003000
 70
     1
  0
VERTEX
  8
EBENE_1
 62
     1
  6
CONTINUOUS
 10
5.021906
 20
3.667157
  0
VERTEX
  8
EBENE_1
 62
     1
  6
CONTINUOUS
 10
4.924283
 20
3.667157
  0
VERTEX
  8
EBENE_1
 62
     1
  6
CONTINUOUS
 10
4.924283
 20
3.371882
  0
VERTEX
  8
EBENE_1
 62
     1
  6
CONTINUOUS
 10
5.021906
 20
3.371882
  0
SEQEND
  8
0
  0
POLYLINE
  8
EBENE_1
 62
     1
  6
CONTINUOUS
 66
     1
 40
0.003000
 41
0.003000
  0
VERTEX
  8
EBENE_1
 62
     1
  6
CONTINUOUS
 10
5.031665
 20
3.677000
  0
VERTEX
  8
EBENE_1
 62
     1
  6
CONTINUOUS
 10
5.021906
 20
3.667157
  0
SEQEND
  8
0
  0
POLYLINE
  8
EBENE_1
 62
     1
  6
CONTINUOUS
 66
     1
 40
0.003000
 41
0.003000
  0
VERTEX
  8
EBENE_1
 62
     1
  6
CONTINUOUS
 10
4.914520
 20
3.677000
  0
VERTEX
  8
EBENE_1
 62
     1
  6
CONTINUOUS
 10
4.924283
 20
3.667157
  0
SEQEND
  8
0
  0
POLYLINE
  8
EBENE_1
 62
     1
  6
CONTINUOUS
 66
     1
 40
0.003000
 41
0.003000
  0
VERTEX
  8
EBENE_1
 62
     1
  6
CONTINUOUS
 10
5.021906
 20
3.371882
  0
VERTEX
  8
EBENE_1
 62
     1
  6
CONTINUOUS
 10
5.031665
 20
3.362039
  0
SEQEND
  8
0
  0
POLYLINE
  8
EBENE_1
 62
     1
  6
CONTINUOUS
 66
     1
 40
0.003000
 41
0.003000
  0
VERTEX
  8
EBENE_1
 62
     1
  6
CONTINUOUS
 10
4.924283
 20
3.371882
  0
VERTEX
  8
EBENE_1
 62
     1
  6
CONTINUOUS
 10
4.914520
 20
3.362039
  0
SEQEND
  8
0
  0
POLYLINE
  8
EBENE_1
 62
     1
  6
CONTINUOUS
 66
     1
 40
0.003000
 41
0.003000
 70
     1
  0
VERTEX
  8
EBENE_1
 62
     1
  6
CONTINUOUS
 10
5.084382
 20
3.677000
  0
VERTEX
  8
EBENE_1
 62
     1
  6
CONTINUOUS
 10
4.861803
 20
3.677000
  0
VERTEX
  8
EBENE_1
 62
     1
  6
CONTINUOUS
 10
4.861803
 20
3.362039
  0
VERTEX
  8
EBENE_1
 62
     1
  6
CONTINUOUS
 10
5.084382
 20
3.362039
  0
SEQEND
  8
0
  0
POLYLINE
  8
EBENE_1
 62
     1
  6
CONTINUOUS
 66
     1
 40
0.003000
 41
0.003000
 70
     1
  0
VERTEX
  8
EBENE_1
 62
     1
  6
CONTINUOUS
 10
5.035571
 20
3.677000
  0
VERTEX
  8
EBENE_1
 62
     1
  6
CONTINUOUS
 10
4.910614
 20
3.677000
  0
VERTEX
  8
EBENE_1
 62
     1
  6
CONTINUOUS
 10
4.910614
 20
3.362039
  0
VERTEX
  8
EBENE_1
 62
     1
  6
CONTINUOUS
 10
5.035571
 20
3.362039
  0
SEQEND
  8
0
  0
POLYLINE
  8
EBENE_1
 62
     1
  6
CONTINUOUS
 66
     1
 40
0.003000
 41
0.003000
 70
     1
  0
VERTEX
  8
EBENE_1
 62
     1
  6
CONTINUOUS
 10
13.081665
 20
3.677000
  0
VERTEX
  8
EBENE_1
 62
     1
  6
CONTINUOUS
 10
12.964520
 20
3.677000
  0
VERTEX
  8
EBENE_1
 62
     1
  6
CONTINUOUS
 10
12.964520
 20
3.362039
  0
VERTEX
  8
EBENE_1
 62
     1
  6
CONTINUOUS
 10
13.081665
 20
3.362039
  0
SEQEND
  8
0
  0
POLYLINE
  8
EBENE_1
 62
     1
  6
CONTINUOUS
 66
     1
 40
0.003000
 41
0.003000
 70
     1
  0
VERTEX
  8
EBENE_1
 62
     1
  6
CONTINUOUS
 10
13.071902
 20
3.667157
  0
VERTEX
  8
EBENE_1
 62
     1
  6
CONTINUOUS
 10
12.974280
 20
3.667157
  0
VERTEX
  8
EBENE_1
 62
     1
  6
CONTINUOUS
 10
12.974280
 20
3.371882
  0
VERTEX
  8
EBENE_1
 62
     1
  6
CONTINUOUS
 10
13.071902
 20
3.371882
  0
SEQEND
  8
0
  0
POLYLINE
  8
EBENE_1
 62
     1
  6
CONTINUOUS
 66
     1
 40
0.003000
 41
0.003000
  0
VERTEX
  8
EBENE_1
 62
     1
  6
CONTINUOUS
 10
13.081665
 20
3.677000
  0
VERTEX
  8
EBENE_1
 62
     1
  6
CONTINUOUS
 10
13.071902
 20
3.667157
  0
SEQEND
  8
0
  0
POLYLINE
  8
EBENE_1
 62
     1
  6
CONTINUOUS
 66
     1
 40
0.003000
 41
0.003000
  0
VERTEX
  8
EBENE_1
 62
     1
  6
CONTINUOUS
 10
12.964520
 20
3.677000
  0
VERTEX
  8
EBENE_1
 62
     1
  6
CONTINUOUS
 10
12.974280
 20
3.667157
  0
SEQEND
  8
0
  0
POLYLINE
  8
EBENE_1
 62
     1
  6
CONTINUOUS
 66
     1
 40
0.003000
 41
0.003000
  0
VERTEX
  8
EBENE_1
 62
     1
  6
CONTINUOUS
 10
13.071902
 20
3.371882
  0
VERTEX
  8
EBENE_1
 62
     1
  6
CONTINUOUS
 10
13.081665
 20
3.362039
  0
SEQEND
  8
0
  0
POLYLINE
  8
EBENE_1
 62
     1
  6
CONTINUOUS
 66
     1
 40
0.003000
 41
0.003000
  0
VERTEX
  8
EBENE_1
 62
     1
  6
CONTINUOUS
 10
12.974280
 20
3.371882
  0
VERTEX
  8
EBENE_1
 62
     1
  6
CONTINUOUS
 10
12.964520
 20
3.362039
  0
SEQEND
  8
0
  0
POLYLINE
  8
EBENE_1
 62
     1
  6
CONTINUOUS
 66
     1
 40
0.003000
 41
0.003000
 70
     1
  0
VERTEX
  8
EBENE_1
 62
     1
  6
CONTINUOUS
 10
13.134382
 20
3.677000
  0
VERTEX
  8
EBENE_1
 62
     1
  6
CONTINUOUS
 10
12.911803
 20
3.677000
  0
VERTEX
  8
EBENE_1
 62
     1
  6
CONTINUOUS
 10
12.911803
 20
3.362039
  0
VERTEX
  8
EBENE_1
 62
     1
  6
CONTINUOUS
 10
13.134382
 20
3.362039
  0
SEQEND
  8
0
  0
POLYLINE
  8
EBENE_1
 62
     1
  6
CONTINUOUS
 66
     1
 40
0.003000
 41
0.003000
 70
     1
  0
VERTEX
  8
EBENE_1
 62
     1
  6
CONTINUOUS
 10
13.085571
 20
3.677000
  0
VERTEX
  8
EBENE_1
 62
     1
  6
CONTINUOUS
 10
12.960614
 20
3.677000
  0
VERTEX
  8
EBENE_1
 62
     1
  6
CONTINUOUS
 10
12.960614
 20
3.362039
  0
VERTEX
  8
EBENE_1
 62
     1
  6
CONTINUOUS
 10
13.085571
 20
3.362039
  0
SEQEND
  8
0
  0
POLYLINE
  8
EBENE_1
 62
     1
  6
CONTINUOUS
 66
     1
 40
0.003000
 41
0.003000
 70
     1
  0
VERTEX
  8
EBENE_1
 62
     1
  6
CONTINUOUS
 10
14.524205
 20
9.346291
  0
VERTEX
  8
EBENE_1
 62
     1
  6
CONTINUOUS
 10
14.406094
 20
9.346291
  0
VERTEX
  8
EBENE_1
 62
     1
  6
CONTINUOUS
 10
14.406094
 20
3.440780
  0
VERTEX
  8
EBENE_1
 62
     1
  6
CONTINUOUS
 10
14.395317
 20
3.401092
  0
VERTEX
  8
EBENE_1
 62
     1
  6
CONTINUOUS
 10
14.367042
 20
3.372817
  0
VERTEX
  8
EBENE_1
 62
     1
  6
CONTINUOUS
 10
14.327354
 20
3.362039
  0
VERTEX
  8
EBENE_1
 62
     1
  6
CONTINUOUS
 10
4.681685
 20
3.362039
  0
VERTEX
  8
EBENE_1
 62
     1
  6
CONTINUOUS
 10
4.681685
 20
3.243929
  0
VERTEX
  8
EBENE_1
 62
     1
  6
CONTINUOUS
 10
14.327354
 20
3.243933
  0
VERTEX
  8
EBENE_1
 62
     1
  6
CONTINUOUS
 10
14.426575
 20
3.270875
  0
VERTEX
  8
EBENE_1
 62
     1
  6
CONTINUOUS
 10
14.497262
 20
3.341562
  0
VERTEX
  8
EBENE_1
 62
     1
  6
CONTINUOUS
 10
14.524205
 20
3.440780
  0
SEQEND
  8
0
  0
POLYLINE
  8
EBENE_1
 62
     1
  6
CONTINUOUS
 66
     1
 40
0.003000
 41
0.003000
 70
     1
  0
VERTEX
  8
EBENE_1
 62
     1
  6
CONTINUOUS
 10
14.906094
 20
8.027394
  0
VERTEX
  8
EBENE_1
 62
     1
  6
CONTINUOUS
 10
14.602945
 20
8.027394
  0
VERTEX
  8
EBENE_1
 62
     1
  6
CONTINUOUS
 10
14.503722
 20
8.000452
  0
VERTEX
  8
EBENE_1
 62
     1
  6
CONTINUOUS
 10
14.433036
 20
7.929766
  0
VERTEX
  8
EBENE_1
 62
     1
  6
CONTINUOUS
 10
14.406094
 20
7.830543
  0
VERTEX
  8
EBENE_1
 62
     1
  6
CONTINUOUS
 10
14.524205
 20
7.830543
  0
VERTEX
  8
EBENE_1
 62
     1
  6
CONTINUOUS
 10
14.534981
 20
7.870233
  0
VERTEX
  8
EBENE_1
 62
     1
  6
CONTINUOUS
 10
14.563255
 20
7.898507
  0
VERTEX
  8
EBENE_1
 62
     1
  6
CONTINUOUS
 10
14.602945
 20
7.909283
  0
VERTEX
  8
EBENE_1
 62
     1
  6
CONTINUOUS
 10
14.783307
 20
7.909283
  0
VERTEX
  8
EBENE_1
 62
     1
  6
CONTINUOUS
 10
14.906094
 20
7.909283
  0
SEQEND
  8
0
  0
POLYLINE
  8
EBENE_1
 62
     4
  6
CONTINUOUS
 66
     1
 40
0.003000
 41
0.003000
  0
VERTEX
  8
EBENE_1
 62
     4
  6
CONTINUOUS
 10
14.406094
 20
3.440780
  0
VERTEX
  8
EBENE_1
 62
     4
  6
CONTINUOUS
 10
13.934157
 20
4.048819
  0
VERTEX
  8
EBENE_1
 62
     4
  6
CONTINUOUS
 10
13.340520
 20
4.048819
  0
SEQEND
  8
0
  0
TEXT
  8
EBENE_1
 62
     4
 10
12.881783
 20
4.048819
 40
0.181884
  1
R2,0
 41
1.000000
  7
SN0
 71
     0
 72
     5
 11
13.351707
 21
4.048819
  0
POLYLINE
  8
EBENE_1
 62
     4
  6
CONTINUOUS
 66
     1
 40
0.003000
 41
0.003000
  0
VERTEX
  8
EBENE_1
 62
     4
  6
CONTINUOUS
 10
14.552303
 20
7.882638
  0
VERTEX
  8
EBENE_1
 62
     4
  6
CONTINUOUS
 10
14.866524
 20
7.501500
  0
VERTEX
  8
EBENE_1
 62
     4
  6
CONTINUOUS
 10
14.879472
 20
6.756480
  0
SEQEND
  8
0
  0
TEXT
  8
EBENE_1
 62
     4
 10
14.879472
 20
6.756480
 40
0.181884
  1
R2,0
 41
1.000000
  7
SN0
 71
     0
 72
     5
 11
15.349396
 21
6.756480
  0
POLYLINE
  8
EBENE_1
 62
     4
  6
CONTINUOUS
 66
     1
 40
0.003000
 41
0.003000
  0
VERTEX
  8
EBENE_1
 62
     4
  6
CONTINUOUS
 10
-2.991213
 20
9.349441
  0
VERTEX
  8
EBENE_1
 62
     4
  6
CONTINUOUS
 10
-2.376850
 20
9.720598
  0
VERTEX
  8
EBENE_1
 62
     4
  6
CONTINUOUS
 10
-1.157953
 20
9.720598
  0
SEQEND
  8
0
  0
TEXT
  8
EBENE_1
 62
     4
 10
-1.157953
 20
9.720598
 40
0.181884
  1
R5,0
 41
1.000000
  7
SN0
 71
     0
 72
     5
 11
-0.688030
 21
9.720598
  0
POLYLINE
  8
EBENE_1
 62
     4
  6
CONTINUOUS
 66
     1
 40
0.003000
 41
0.003000
  0
VERTEX
  8
EBENE_1
 62
     4
  6
CONTINUOUS
 10
3.463433
 20
-8.948980
  0
VERTEX
  8
EBENE_1
 62
     4
  6
CONTINUOUS
 10
4.197488
 20
-9.313248
  0
VERTEX
  8
EBENE_1
 62
     4
  6
CONTINUOUS
 10
5.197413
 20
-9.313248
  0
SEQEND
  8
0
  0
TEXT
  8
EBENE_1
 62
     4
 10
5.197413
 20
-9.313248
 40
0.181884
  1
R5,0
 41
1.000000
  7
SN0
 71
     0
 72
     5
 11
5.667337
 21
-9.313248
  0
POLYLINE
  8
EBENE_1
 62
     4
  6
CONTINUOUS
 66
     1
 40
0.003000
 41
0.003000
  0
VERTEX
  8
EBENE_1
 62
     4
  6
CONTINUOUS
 10
-12.061102
 20
4.819213
  0
VERTEX
  8
EBENE_1
 62
     4
  6
CONTINUOUS
 10
-11.551024
 20
5.083937
  0
VERTEX
  8
EBENE_1
 62
     4
  6
CONTINUOUS
 10
-11.195906
 20
5.083937
  0
SEQEND
  8
0
  0
TEXT
  8
EBENE_1
 62
     4
 10
-11.195906
 20
5.083937
 40
0.181884
  1
R6,35
 41
1.000000
  7
SN0
 71
     0
 72
     5
 11
-10.602161
 21
5.083937
  0
POLYLINE
  8
EBENE_1
 62
     4
  6
CONTINUOUS
 66
     1
 40
0.003000
 41
0.003000
  0
VERTEX
  8
EBENE_1
 62
     4
  6
CONTINUOUS
 10
2.688236
 20
0.984016
  0
VERTEX
  8
EBENE_1
 62
     4
  6
CONTINUOUS
 10
3.949228
 20
-0.167709
  0
VERTEX
  8
EBENE_1
 62
     4
  6
CONTINUOUS
 10
4.771984
 20
-0.167709
  0
SEQEND
  8
0
  0
TEXT
  8
EBENE_1
 62
     4
 10
4.771984
 20
-0.167709
 40
0.181884
  1
10* 3,2mm , gesenkt von unten 
 41
1.000000
  7
SN0
 71
     0
 72
     5
 11
7.909281
 21
-0.167709
  0
TEXT
  8
EBENE_1
 62
     4
 10
4.771984
 20
-0.415972
 40
0.181884
  1
für M3 Senkkopfschraube
 41
1.000000
  7
SN0
 71
     0
 72
     5
 11
7.308078
 21
-0.415972
  0
POLYLINE
  8
EBENE_1
 62
     4
  6
CONTINUOUS
 66
     1
 40
0.003000
 41
0.003000
  0
VERTEX
  8
EBENE_1
 62
     4
  6
CONTINUOUS
 10
2.302071
 20
-9.242217
  0
VERTEX
  8
EBENE_1
 62
     4
  6
CONTINUOUS
 10
2.420181
 20
-9.242217
  0
SEQEND
  8
0
  0
POLYLINE
  8
EBENE_1
 62
     4
  6
CONTINUOUS
 66
     1
 40
0.003000
 41
0.003000
  0
VERTEX
  8
EBENE_1
 62
     4
  6
CONTINUOUS
 10
2.420181
 20
-8.745831
  0
VERTEX
  8
EBENE_1
 62
     4
  6
CONTINUOUS
 10
2.420181
 20
-9.442217
  0
SEQEND
  8
0
  0
POLYLINE
  8
EBENE_1
 62
     4
  6
CONTINUOUS
 66
     1
 40
0.003000
 41
0.003000
  0
VERTEX
  8
EBENE_1
 62
     4
  6
CONTINUOUS
 10
2.302071
 20
-8.745831
  0
VERTEX
  8
EBENE_1
 62
     4
  6
CONTINUOUS
 10
2.302071
 20
-9.442217
  0
SEQEND
  8
0
  0
TEXT
  8
EBENE_1
 62
     4
 10
2.670181
 20
-9.306346
 40
0.181884
  1
3,00 mm
 41
1.000000
  7
SN0
 71
     0
 72
     5
 11
3.533945
 21
-9.306346
  0
POLYLINE
  8
EBENE_1
 62
     4
  6
CONTINUOUS
 66
     1
 40
0.003000
 41
0.003000
  0
VERTEX
  8
EBENE_1
 62
     4
  6
CONTINUOUS
 10
3.285520
 20
-11.861858
  0
VERTEX
  8
EBENE_1
 62
     4
  6
CONTINUOUS
 10
3.660283
 20
-11.861858
  0
SEQEND
  8
0
  0
POLYLINE
  8
EBENE_1
 62
     4
  6
CONTINUOUS
 66
     1
 40
0.003000
 41
0.003000
  0
VERTEX
  8
EBENE_1
 62
     4
  6
CONTINUOUS
 10
-2.434126
 20
-11.861858
  0
VERTEX
  8
EBENE_1
 62
     4
  6
CONTINUOUS
 10
1.688307
 20
-11.861858
  0
SEQEND
  8
0
  0
POLYLINE
  8
EBENE_1
 62
     4
  6
CONTINUOUS
 66
     1
 40
0.003000
 41
0.003000
  0
VERTEX
  8
EBENE_1
 62
     4
  6
CONTINUOUS
 10
3.660283
 20
-8.852130
  0
VERTEX
  8
EBENE_1
 62
     4
  6
CONTINUOUS
 10
3.660283
 20
-12.061858
  0
SEQEND
  8
0
  0
POLYLINE
  8
EBENE_1
 62
     4
  6
CONTINUOUS
 66
     1
 40
0.003000
 41
0.003000
  0
VERTEX
  8
EBENE_1
 62
     4
  6
CONTINUOUS
 10
-2.434126
 20
-8.745831
  0
VERTEX
  8
EBENE_1
 62
     4
  6
CONTINUOUS
 10
-2.434126
 20
-12.061858
  0
SEQEND
  8
0
  0
TEXT
  8
EBENE_1
 62
     4
 10
1.938307
 20
-11.925988
 40
0.181884
  1
154,80 mm
 41
1.000000
  7
SN0
 71
     0
 72
     5
 11
3.049713
 21
-11.925988
  0
POLYLINE
  8
EBENE_1
 62
     4
  6
CONTINUOUS
 66
     1
 40
0.003000
 41
0.003000
  0
VERTEX
  8
EBENE_1
 62
     4
  6
CONTINUOUS
 10
3.304079
 20
-11.517681
  0
VERTEX
  8
EBENE_1
 62
     4
  6
CONTINUOUS
 10
3.660283
 20
-11.517681
  0
SEQEND
  8
0
  0
POLYLINE
  8
EBENE_1
 62
     4
  6
CONTINUOUS
 66
     1
 40
0.003000
 41
0.003000
  0
VERTEX
  8
EBENE_1
 62
     4
  6
CONTINUOUS
 10
-1.634917
 20
-11.517681
  0
VERTEX
  8
EBENE_1
 62
     4
  6
CONTINUOUS
 10
1.706866
 20
-11.517681
  0
SEQEND
  8
0
  0
POLYLINE
  8
EBENE_1
 62
     4
  6
CONTINUOUS
 66
     1
 40
0.003000
 41
0.003000
  0
VERTEX
  8
EBENE_1
 62
     4
  6
CONTINUOUS
 10
3.660283
 20
-8.852130
  0
VERTEX
  8
EBENE_1
 62
     4
  6
CONTINUOUS
 10
3.660283
 20
-11.717681
  0
SEQEND
  8
0
  0
POLYLINE
  8
EBENE_1
 62
     4
  6
CONTINUOUS
 66
     1
 40
0.003000
 41
0.003000
  0
VERTEX
  8
EBENE_1
 62
     4
  6
CONTINUOUS
 10
-1.634917
 20
-8.745831
  0
VERTEX
  8
EBENE_1
 62
     4
  6
CONTINUOUS
 10
-1.634917
 20
-11.717681
  0
SEQEND
  8
0
  0
TEXT
  8
EBENE_1
 62
     4
 10
1.956866
 20
-11.581811
 40
0.181884
  1
134,50 mm
 41
1.000000
  7
SN0
 71
     0
 72
     5
 11
3.068272
 21
-11.581811
  0
POLYLINE
  8
EBENE_1
 62
     4
  6
CONTINUOUS
 66
     1
 40
0.003000
 41
0.003000
  0
VERTEX
  8
EBENE_1
 62
     4
  6
CONTINUOUS
 10
3.295839
 20
-11.230850
  0
VERTEX
  8
EBENE_1
 62
     4
  6
CONTINUOUS
 10
3.660283
 20
-11.230850
  0
SEQEND
  8
0
  0
POLYLINE
  8
EBENE_1
 62
     4
  6
CONTINUOUS
 66
     1
 40
0.003000
 41
0.003000
  0
VERTEX
  8
EBENE_1
 62
     4
  6
CONTINUOUS
 10
-0.835709
 20
-11.230850
  0
VERTEX
  8
EBENE_1
 62
     4
  6
CONTINUOUS
 10
1.715106
 20
-11.230850
  0
SEQEND
  8
0
  0
POLYLINE
  8
EBENE_1
 62
     4
  6
CONTINUOUS
 66
     1
 40
0.003000
 41
0.003000
  0
VERTEX
  8
EBENE_1
 62
     4
  6
CONTINUOUS
 10
3.660283
 20
-8.852130
  0
VERTEX
  8
EBENE_1
 62
     4
  6
CONTINUOUS
 10
3.660283
 20
-11.430850
  0
SEQEND
  8
0
  0
POLYLINE
  8
EBENE_1
 62
     4
  6
CONTINUOUS
 66
     1
 40
0.003000
 41
0.003000
  0
VERTEX
  8
EBENE_1
 62
     4
  6
CONTINUOUS
 10
-0.835709
 20
-8.745831
  0
VERTEX
  8
EBENE_1
 62
     4
  6
CONTINUOUS
 10
-0.835709
 20
-11.430850
  0
SEQEND
  8
0
  0
TEXT
  8
EBENE_1
 62
     4
 10
1.965106
 20
-11.294980
 40
0.181884
  1
114,20 mm
 41
1.000000
  7
SN0
 71
     0
 72
     5
 11
3.076512
 21
-11.294980
  0
POLYLINE
  8
EBENE_1
 62
     4
  6
CONTINUOUS
 66
     1
 40
0.003000
 41
0.003000
  0
VERTEX
  8
EBENE_1
 62
     4
  6
CONTINUOUS
 10
3.251579
 20
-10.881878
  0
VERTEX
  8
EBENE_1
 62
     4
  6
CONTINUOUS
 10
3.660283
 20
-10.881878
  0
SEQEND
  8
0
  0
POLYLINE
  8
EBENE_1
 62
     4
  6
CONTINUOUS
 66
     1
 40
0.003000
 41
0.003000
  0
VERTEX
  8
EBENE_1
 62
     4
  6
CONTINUOUS
 10
-0.036500
 20
-10.881878
  0
VERTEX
  8
EBENE_1
 62
     4
  6
CONTINUOUS
 10
1.777925
 20
-10.881878
  0
SEQEND
  8
0
  0
POLYLINE
  8
EBENE_1
 62
     4
  6
CONTINUOUS
 66
     1
 40
0.003000
 41
0.003000
  0
VERTEX
  8
EBENE_1
 62
     4
  6
CONTINUOUS
 10
3.660283
 20
-8.852130
  0
VERTEX
  8
EBENE_1
 62
     4
  6
CONTINUOUS
 10
3.660283
 20
-11.081878
  0
SEQEND
  8
0
  0
POLYLINE
  8
EBENE_1
 62
     4
  6
CONTINUOUS
 66
     1
 40
0.003000
 41
0.003000
  0
VERTEX
  8
EBENE_1
 62
     4
  6
CONTINUOUS
 10
-0.036500
 20
-8.745831
  0
VERTEX
  8
EBENE_1
 62
     4
  6
CONTINUOUS
 10
-0.036500
 20
-11.081878
  0
SEQEND
  8
0
  0
TEXT
  8
EBENE_1
 62
     4
 10
2.027925
 20
-10.946008
 40
0.181884
  1
93,90 mm
 41
1.000000
  7
SN0
 71
     0
 72
     5
 11
3.015510
 21
-10.946008
  0
POLYLINE
  8
EBENE_1
 62
     4
  6
CONTINUOUS
 66
     1
 40
0.003000
 41
0.003000
  0
VERTEX
  8
EBENE_1
 62
     4
  6
CONTINUOUS
 10
3.260858
 20
-10.541350
  0
VERTEX
  8
EBENE_1
 62
     4
  6
CONTINUOUS
 10
3.660283
 20
-10.541350
  0
SEQEND
  8
0
  0
POLYLINE
  8
EBENE_1
 62
     4
  6
CONTINUOUS
 66
     1
 40
0.003000
 41
0.003000
  0
VERTEX
  8
EBENE_1
 62
     4
  6
CONTINUOUS
 10
0.762709
 20
-10.541350
  0
VERTEX
  8
EBENE_1
 62
     4
  6
CONTINUOUS
 10
1.787205
 20
-10.541350
  0
SEQEND
  8
0
  0
POLYLINE
  8
EBENE_1
 62
     4
  6
CONTINUOUS
 66
     1
 40
0.003000
 41
0.003000
  0
VERTEX
  8
EBENE_1
 62
     4
  6
CONTINUOUS
 10
3.660283
 20
-8.852130
  0
VERTEX
  8
EBENE_1
 62
     4
  6
CONTINUOUS
 10
3.660283
 20
-10.741350
  0
SEQEND
  8
0
  0
POLYLINE
  8
EBENE_1
 62
     4
  6
CONTINUOUS
 66
     1
 40
0.003000
 41
0.003000
  0
VERTEX
  8
EBENE_1
 62
     4
  6
CONTINUOUS
 10
0.762709
 20
-8.745831
  0
VERTEX
  8
EBENE_1
 62
     4
  6
CONTINUOUS
 10
0.762709
 20
-10.741350
  0
SEQEND
  8
0
  0
TEXT
  8
EBENE_1
 62
     4
 10
2.037205
 20
-10.605480
 40
0.181884
  1
73,60 mm
 41
1.000000
  7
SN0
 71
     0
 72
     5
 11
3.024789
 21
-10.605480
  0
POLYLINE
  8
EBENE_1
 62
     4
  6
CONTINUOUS
 66
     1
 40
0.003000
 41
0.003000
  0
VERTEX
  8
EBENE_1
 62
     4
  6
CONTINUOUS
 10
3.307256
 20
-10.179449
  0
VERTEX
  8
EBENE_1
 62
     4
  6
CONTINUOUS
 10
3.660283
 20
-10.179449
  0
SEQEND
  8
0
  0
POLYLINE
  8
EBENE_1
 62
     4
  6
CONTINUOUS
 66
     1
 40
0.003000
 41
0.003000
  0
VERTEX
  8
EBENE_1
 62
     4
  6
CONTINUOUS
 10
1.561917
 20
-10.179449
  0
VERTEX
  8
EBENE_1
 62
     4
  6
CONTINUOUS
 10
1.833602
 20
-10.179449
  0
SEQEND
  8
0
  0
POLYLINE
  8
EBENE_1
 62
     4
  6
CONTINUOUS
 66
     1
 40
0.003000
 41
0.003000
  0
VERTEX
  8
EBENE_1
 62
     4
  6
CONTINUOUS
 10
3.660283
 20
-8.852130
  0
VERTEX
  8
EBENE_1
 62
     4
  6
CONTINUOUS
 10
3.660283
 20
-10.379449
  0
SEQEND
  8
0
  0
POLYLINE
  8
EBENE_1
 62
     4
  6
CONTINUOUS
 66
     1
 40
0.003000
 41
0.003000
  0
VERTEX
  8
EBENE_1
 62
     4
  6
CONTINUOUS
 10
1.561917
 20
-8.804886
  0
VERTEX
  8
EBENE_1
 62
     4
  6
CONTINUOUS
 10
1.561917
 20
-10.379449
  0
SEQEND
  8
0
  0
TEXT
  8
EBENE_1
 62
     4
 10
2.083602
 20
-10.243579
 40
0.181884
  1
53,30 mm
 41
1.000000
  7
SN0
 71
     0
 72
     5
 11
3.071187
 21
-10.243579
  0
POLYLINE
  8
EBENE_1
 62
     4
  6
CONTINUOUS
 66
     1
 40
0.003000
 41
0.003000
  0
VERTEX
  8
EBENE_1
 62
     4
  6
CONTINUOUS
 10
3.660283
 20
-9.669075
  0
VERTEX
  8
EBENE_1
 62
     4
  6
CONTINUOUS
 10
3.782303
 20
-9.669075
  0
SEQEND
  8
0
  0
POLYLINE
  8
EBENE_1
 62
     4
  6
CONTINUOUS
 66
     1
 40
0.003000
 41
0.003000
  0
VERTEX
  8
EBENE_1
 62
     4
  6
CONTINUOUS
 10
2.361126
 20
-9.669075
  0
VERTEX
  8
EBENE_1
 62
     4
  6
CONTINUOUS
 10
3.660283
 20
-9.669075
  0
SEQEND
  8
0
  0
POLYLINE
  8
EBENE_1
 62
     4
  6
CONTINUOUS
 66
     1
 40
0.003000
 41
0.003000
  0
VERTEX
  8
EBENE_1
 62
     4
  6
CONTINUOUS
 10
3.660283
 20
-8.852130
  0
VERTEX
  8
EBENE_1
 62
     4
  6
CONTINUOUS
 10
3.660283
 20
-9.869075
  0
SEQEND
  8
0
  0
POLYLINE
  8
EBENE_1
 62
     4
  6
CONTINUOUS
 66
     1
 40
0.003000
 41
0.003000
  0
VERTEX
  8
EBENE_1
 62
     4
  6
CONTINUOUS
 10
2.361126
 20
-8.745831
  0
VERTEX
  8
EBENE_1
 62
     4
  6
CONTINUOUS
 10
2.361126
 20
-9.869075
  0
SEQEND
  8
0
  0
TEXT
  8
EBENE_1
 62
     4
 10
4.032303
 20
-9.733205
 40
0.181884
  1
33,00 mm
 41
1.000000
  7
SN0
 71
     0
 72
     5
 11
5.019888
 21
-9.733205
  0
POLYLINE
  8
EBENE_1
 62
     4
  6
CONTINUOUS
 66
     1
 40
0.003000
 41
0.003000
  0
VERTEX
  8
EBENE_1
 62
     4
  6
CONTINUOUS
 10
-12.975150
 20
1.275425
  0
VERTEX
  8
EBENE_1
 62
     4
  6
CONTINUOUS
 10
-13.835276
 20
1.275425
  0
SEQEND
  8
0
  0
POLYLINE
  8
EBENE_1
 62
     4
  6
CONTINUOUS
 66
     1
 40
0.003000
 41
0.003000
  0
VERTEX
  8
EBENE_1
 62
     4
  6
CONTINUOUS
 10
-12.975142
 20
-8.448980
  0
VERTEX
  8
EBENE_1
 62
     4
  6
CONTINUOUS
 10
-13.835276
 20
-8.448980
  0
SEQEND
  8
0
  0
POLYLINE
  8
EBENE_1
 62
     4
  6
CONTINUOUS
 66
     1
 40
0.003000
 41
0.003000
  0
VERTEX
  8
EBENE_1
 62
     4
  6
CONTINUOUS
 10
-13.635276
 20
1.275425
  0
VERTEX
  8
EBENE_1
 62
     4
  6
CONTINUOUS
 10
-13.635276
 20
-2.376343
  0
SEQEND
  8
0
  0
POLYLINE
  8
EBENE_1
 62
     4
  6
CONTINUOUS
 66
     1
 40
0.003000
 41
0.003000
  0
VERTEX
  8
EBENE_1
 62
     4
  6
CONTINUOUS
 10
-13.635276
 20
-3.973555
  0
VERTEX
  8
EBENE_1
 62
     4
  6
CONTINUOUS
 10
-13.635276
 20
-8.448980
  0
SEQEND
  8
0
  0
TEXT
  8
EBENE_1
 62
     4
 10
-13.571146
 20
-3.723555
 40
0.181884
  1
247,00 mm
 50
90.000660
 41
1.000000
  7
SN0
 71
     0
 72
     5
 11
-13.571146
 21
-2.612149
  0
POLYLINE
  8
EBENE_1
 62
     4
  6
CONTINUOUS
 66
     1
 40
0.003000
 41
0.003000
  0
VERTEX
  8
EBENE_1
 62
     4
  6
CONTINUOUS
 10
-3.786228
 20
2.842961
  0
VERTEX
  8
EBENE_1
 62
     4
  6
CONTINUOUS
 10
3.660283
 20
2.842961
  0
SEQEND
  8
0
  0
POLYLINE
  8
EBENE_1
 62
     4
  6
CONTINUOUS
 66
     1
 40
0.003000
 41
0.003000
  0
VERTEX
  8
EBENE_1
 62
     4
  6
CONTINUOUS
 10
-12.875150
 20
2.842961
  0
VERTEX
  8
EBENE_1
 62
     4
  6
CONTINUOUS
 10
-5.383441
 20
2.842961
  0
SEQEND
  8
0
  0
POLYLINE
  8
EBENE_1
 62
     4
  6
CONTINUOUS
 66
     1
 40
0.003000
 41
0.003000
  0
VERTEX
  8
EBENE_1
 62
     4
  6
CONTINUOUS
 10
3.660283
 20
1.375425
  0
VERTEX
  8
EBENE_1
 62
     4
  6
CONTINUOUS
 10
3.660283
 20
3.042961
  0
SEQEND
  8
0
  0
POLYLINE
  8
EBENE_1
 62
     4
  6
CONTINUOUS
 66
     1
 40
0.003000
 41
0.003000
  0
VERTEX
  8
EBENE_1
 62
     4
  6
CONTINUOUS
 10
-12.875150
 20
1.375425
  0
VERTEX
  8
EBENE_1
 62
     4
  6
CONTINUOUS
 10
-12.875150
 20
3.042961
  0
SEQEND
  8
0
  0
TEXT
  8
EBENE_1
 62
     4
 10
-5.133441
 20
2.778831
 40
0.181884
  1
420,00 mm
 41
1.000000
  7
SN0
 71
     0
 72
     5
 11
-4.022035
 21
2.778831
  0
POLYLINE
  8
EBENE_1
 62
     4
  6
CONTINUOUS
 66
     1
 40
0.003000
 41
0.003000
  0
VERTEX
  8
EBENE_1
 62
     4
  6
CONTINUOUS
 10
2.610283
 20
1.084024
  0
VERTEX
  8
EBENE_1
 62
     4
  6
CONTINUOUS
 10
2.610283
 20
1.717197
  0
SEQEND
  8
0
  0
POLYLINE
  8
EBENE_1
 62
     4
  6
CONTINUOUS
 66
     1
 40
0.003000
 41
0.003000
  0
VERTEX
  8
EBENE_1
 62
     4
  6
CONTINUOUS
 10
3.660283
 20
1.375425
  0
VERTEX
  8
EBENE_1
 62
     4
  6
CONTINUOUS
 10
3.660283
 20
1.717197
  0
SEQEND
  8
0
  0
POLYLINE
  8
EBENE_1
 62
     4
  6
CONTINUOUS
 66
     1
 40
0.003000
 41
0.003000
  0
VERTEX
  8
EBENE_1
 62
     4
  6
CONTINUOUS
 10
2.610283
 20
1.517197
  0
VERTEX
  8
EBENE_1
 62
     4
  6
CONTINUOUS
 10
2.603114
 20
1.517197
  0
SEQEND
  8
0
  0
POLYLINE
  8
EBENE_1
 62
     4
  6
CONTINUOUS
 66
     1
 40
0.003000
 41
0.003000
  0
VERTEX
  8
EBENE_1
 62
     4
  6
CONTINUOUS
 10
2.610283
 20
1.517197
  0
VERTEX
  8
EBENE_1
 62
     4
  6
CONTINUOUS
 10
3.660283
 20
1.517197
  0
SEQEND
  8
0
  0
TEXT
  8
EBENE_1
 62
     4
 10
1.379461
 20
1.453067
 40
0.181884
  1
26,67 mm
 41
1.000000
  7
SN0
 71
     0
 72
     5
 11
2.367045
 21
1.453067
  0
POLYLINE
  8
EBENE_1
 62
     4
  6
CONTINUOUS
 66
     1
 40
0.003000
 41
0.003000
  0
VERTEX
  8
EBENE_1
 62
     4
  6
CONTINUOUS
 10
3.660283
 20
1.375425
  0
VERTEX
  8
EBENE_1
 62
     4
  6
CONTINUOUS
 10
3.660283
 20
2.353370
  0
SEQEND
  8
0
  0
POLYLINE
  8
EBENE_1
 62
     4
  6
CONTINUOUS
 66
     1
 40
0.003000
 41
0.003000
  0
VERTEX
  8
EBENE_1
 62
     4
  6
CONTINUOUS
 10
-2.289717
 20
1.084024
  0
VERTEX
  8
EBENE_1
 62
     4
  6
CONTINUOUS
 10
-2.289717
 20
2.353370
  0
SEQEND
  8
0
  0
POLYLINE
  8
EBENE_1
 62
     4
  6
CONTINUOUS
 66
     1
 40
0.003000
 41
0.003000
  0
VERTEX
  8
EBENE_1
 62
     4
  6
CONTINUOUS
 10
3.660283
 20
2.153370
  0
VERTEX
  8
EBENE_1
 62
     4
  6
CONTINUOUS
 10
1.976035
 20
2.153370
  0
SEQEND
  8
0
  0
POLYLINE
  8
EBENE_1
 62
     4
  6
CONTINUOUS
 66
     1
 40
0.003000
 41
0.003000
  0
VERTEX
  8
EBENE_1
 62
     4
  6
CONTINUOUS
 10
0.378823
 20
2.153370
  0
VERTEX
  8
EBENE_1
 62
     4
  6
CONTINUOUS
 10
-2.289717
 20
2.153370
  0
SEQEND
  8
0
  0
TEXT
  8
EBENE_1
 62
     4
 10
0.628823
 20
2.089240
 40
0.181884
  1
151,13 mm
 41
1.000000
  7
SN0
 71
     0
 72
     5
 11
1.740228
 21
2.089240
  0
POLYLINE
  8
EBENE_1
 62
     4
  6
CONTINUOUS
 66
     1
 40
0.003000
 41
0.003000
  0
VERTEX
  8
EBENE_1
 62
     4
  6
CONTINUOUS
 10
-8.489717
 20
1.084024
  0
VERTEX
  8
EBENE_1
 62
     4
  6
CONTINUOUS
 10
-8.489717
 20
2.726299
  0
SEQEND
  8
0
  0
POLYLINE
  8
EBENE_1
 62
     4
  6
CONTINUOUS
 66
     1
 40
0.003000
 41
0.003000
  0
VERTEX
  8
EBENE_1
 62
     4
  6
CONTINUOUS
 10
3.660283
 20
1.375425
  0
VERTEX
  8
EBENE_1
 62
     4
  6
CONTINUOUS
 10
3.660283
 20
2.726299
  0
SEQEND
  8
0
  0
POLYLINE
  8
EBENE_1
 62
     4
  6
CONTINUOUS
 66
     1
 40
0.003000
 41
0.003000
  0
VERTEX
  8
EBENE_1
 62
     4
  6
CONTINUOUS
 10
-8.489717
 20
2.526299
  0
VERTEX
  8
EBENE_1
 62
     4
  6
CONTINUOUS
 10
-1.485823
 20
2.526299
  0
SEQEND
  8
0
  0
POLYLINE
  8
EBENE_1
 62
     4
  6
CONTINUOUS
 66
     1
 40
0.003000
 41
0.003000
  0
VERTEX
  8
EBENE_1
 62
     4
  6
CONTINUOUS
 10
0.111390
 20
2.526299
  0
VERTEX
  8
EBENE_1
 62
     4
  6
CONTINUOUS
 10
3.660283
 20
2.526299
  0
SEQEND
  8
0
  0
TEXT
  8
EBENE_1
 62
     4
 10
-1.235823
 20
2.462169
 40
0.181884
  1
308,61 mm
 41
1.000000
  7
SN0
 71
     0
 72
     5
 11
-0.124417
 21
2.462169
  0
POLYLINE
  8
EBENE_1
 62
     4
  6
CONTINUOUS
 66
     1
 40
0.003000
 41
0.003000
  0
VERTEX
  8
EBENE_1
 62
     4
  6
CONTINUOUS
 10
-0.489717
 20
-7.865988
  0
VERTEX
  8
EBENE_1
 62
     4
  6
CONTINUOUS
 10
-0.489717
 20
1.980441
  0
SEQEND
  8
0
  0
POLYLINE
  8
EBENE_1
 62
     4
  6
CONTINUOUS
 66
     1
 40
0.003000
 41
0.003000
  0
VERTEX
  8
EBENE_1
 62
     4
  6
CONTINUOUS
 10
3.660283
 20
1.375425
  0
VERTEX
  8
EBENE_1
 62
     4
  6
CONTINUOUS
 10
3.660283
 20
1.980441
  0
SEQEND
  8
0
  0
POLYLINE
  8
EBENE_1
 62
     4
  6
CONTINUOUS
 66
     1
 40
0.003000
 41
0.003000
  0
VERTEX
  8
EBENE_1
 62
     4
  6
CONTINUOUS
 10
-0.489717
 20
1.780441
  0
VERTEX
  8
EBENE_1
 62
     4
  6
CONTINUOUS
 10
-0.432846
 20
1.780441
  0
SEQEND
  8
0
  0
POLYLINE
  8
EBENE_1
 62
     4
  6
CONTINUOUS
 66
     1
 40
0.003000
 41
0.003000
  0
VERTEX
  8
EBENE_1
 62
     4
  6
CONTINUOUS
 10
1.164366
 20
1.780441
  0
VERTEX
  8
EBENE_1
 62
     4
  6
CONTINUOUS
 10
3.660283
 20
1.780441
  0
SEQEND
  8
0
  0
TEXT
  8
EBENE_1
 62
     4
 10
-0.182846
 20
1.716311
 40
0.181884
  1
105,41 mm
 41
1.000000
  7
SN0
 71
     0
 72
     5
 11
0.928559
 21
1.716311
  0
POLYLINE
  8
EBENE_1
 62
     4
  6
CONTINUOUS
 66
     1
 40
0.003000
 41
0.003000
  0
VERTEX
  8
EBENE_1
 62
     4
  6
CONTINUOUS
 10
2.788236
 20
-7.965992
  0
VERTEX
  8
EBENE_1
 62
     4
  6
CONTINUOUS
 10
6.351906
 20
-7.965992
  0
SEQEND
  8
0
  0
POLYLINE
  8
EBENE_1
 62
     4
  6
CONTINUOUS
 66
     1
 40
0.003000
 41
0.003000
  0
VERTEX
  8
EBENE_1
 62
     4
  6
CONTINUOUS
 10
3.760283
 20
-8.448980
  0
VERTEX
  8
EBENE_1
 62
     4
  6
CONTINUOUS
 10
6.351906
 20
-8.448980
  0
SEQEND
  8
0
  0
POLYLINE
  8
EBENE_1
 62
     4
  6
CONTINUOUS
 66
     1
 40
0.003000
 41
0.003000
  0
VERTEX
  8
EBENE_1
 62
     4
  6
CONTINUOUS
 10
6.151906
 20
-7.965992
  0
VERTEX
  8
EBENE_1
 62
     4
  6
CONTINUOUS
 10
6.151906
 20
-8.448980
  0
SEQEND
  8
0
  0
POLYLINE
  8
EBENE_1
 62
     4
  6
CONTINUOUS
 66
     1
 40
0.003000
 41
0.003000
  0
VERTEX
  8
EBENE_1
 62
     4
  6
CONTINUOUS
 10
6.151906
 20
-8.448980
  0
VERTEX
  8
EBENE_1
 62
     4
  6
CONTINUOUS
 10
6.151906
 20
-8.456146
  0
SEQEND
  8
0
  0
TEXT
  8
EBENE_1
 62
     4
 10
6.216035
 20
-9.679803
 40
0.181884
  1
12,27 mm
 50
90.000660
 41
1.000000
  7
SN0
 71
     0
 72
     5
 11
6.216035
 21
-8.692219
  0
POLYLINE
  8
EBENE_1
 62
     4
  6
CONTINUOUS
 66
     1
 40
0.003000
 41
0.003000
  0
VERTEX
  8
EBENE_1
 62
     4
  6
CONTINUOUS
 10
-8.389717
 20
-7.065992
  0
VERTEX
  8
EBENE_1
 62
     4
  6
CONTINUOUS
 10
7.075827
 20
-7.065992
  0
SEQEND
  8
0
  0
POLYLINE
  8
EBENE_1
 62
     4
  6
CONTINUOUS
 66
     1
 40
0.003000
 41
0.003000
  0
VERTEX
  8
EBENE_1
 62
     4
  6
CONTINUOUS
 10
3.760283
 20
-8.448980
  0
VERTEX
  8
EBENE_1
 62
     4
  6
CONTINUOUS
 10
7.075827
 20
-8.448980
  0
SEQEND
  8
0
  0
POLYLINE
  8
EBENE_1
 62
     4
  6
CONTINUOUS
 66
     1
 40
0.003000
 41
0.003000
  0
VERTEX
  8
EBENE_1
 62
     4
  6
CONTINUOUS
 10
6.875827
 20
-7.065992
  0
VERTEX
  8
EBENE_1
 62
     4
  6
CONTINUOUS
 10
6.875827
 20
-8.448980
  0
SEQEND
  8
0
  0
TEXT
  8
EBENE_1
 62
     4
 10
6.939957
 20
-9.679803
 40
0.181884
  1
35,13 mm
 50
90.000660
 41
1.000000
  7
SN0
 71
     0
 72
     5
 11
6.939957
 21
-8.692219
  0
POLYLINE
  8
EBENE_1
 62
     4
  6
CONTINUOUS
 66
     1
 40
0.003000
 41
0.003000
  0
VERTEX
  8
EBENE_1
 62
     4
  6
CONTINUOUS
 10
3.760283
 20
-8.448980
  0
VERTEX
  8
EBENE_1
 62
     4
  6
CONTINUOUS
 10
7.821685
 20
-8.448980
  0
SEQEND
  8
0
  0
POLYLINE
  8
EBENE_1
 62
     4
  6
CONTINUOUS
 66
     1
 40
0.003000
 41
0.003000
  0
VERTEX
  8
EBENE_1
 62
     4
  6
CONTINUOUS
 10
2.788236
 20
-1.865996
  0
VERTEX
  8
EBENE_1
 62
     4
  6
CONTINUOUS
 10
7.821685
 20
-1.865996
  0
SEQEND
  8
0
  0
POLYLINE
  8
EBENE_1
 62
     4
  6
CONTINUOUS
 66
     1
 40
0.003000
 41
0.003000
  0
VERTEX
  8
EBENE_1
 62
     4
  6
CONTINUOUS
 10
7.621685
 20
-8.448980
  0
VERTEX
  8
EBENE_1
 62
     4
  6
CONTINUOUS
 10
7.621685
 20
-8.009965
  0
SEQEND
  8
0
  0
POLYLINE
  8
EBENE_1
 62
     4
  6
CONTINUOUS
 66
     1
 40
0.003000
 41
0.003000
  0
VERTEX
  8
EBENE_1
 62
     4
  6
CONTINUOUS
 10
7.621685
 20
-6.412752
  0
VERTEX
  8
EBENE_1
 62
     4
  6
CONTINUOUS
 10
7.621685
 20
-1.865996
  0
SEQEND
  8
0
  0
TEXT
  8
EBENE_1
 62
     4
 10
7.685815
 20
-7.759965
 40
0.181884
  1
167,21 mm
 50
90.000660
 41
1.000000
  7
SN0
 71
     0
 72
     5
 11
7.685815
 21
-6.648559
  0
POLYLINE
  8
EBENE_1
 62
     4
  6
CONTINUOUS
 66
     1
 40
0.003000
 41
0.003000
  0
VERTEX
  8
EBENE_1
 62
     4
  6
CONTINUOUS
 10
3.760283
 20
-8.448980
  0
VERTEX
  8
EBENE_1
 62
     4
  6
CONTINUOUS
 10
8.677228
 20
-8.448980
  0
SEQEND
  8
0
  0
POLYLINE
  8
EBENE_1
 62
     4
  6
CONTINUOUS
 66
     1
 40
0.003000
 41
0.003000
  0
VERTEX
  8
EBENE_1
 62
     4
  6
CONTINUOUS
 10
2.710283
 20
0.984024
  0
VERTEX
  8
EBENE_1
 62
     4
  6
CONTINUOUS
 10
8.677228
 20
0.984024
  0
SEQEND
  8
0
  0
POLYLINE
  8
EBENE_1
 62
     4
  6
CONTINUOUS
 66
     1
 40
0.003000
 41
0.003000
  0
VERTEX
  8
EBENE_1
 62
     4
  6
CONTINUOUS
 10
8.477228
 20
-8.448980
  0
VERTEX
  8
EBENE_1
 62
     4
  6
CONTINUOUS
 10
8.477228
 20
-8.097713
  0
SEQEND
  8
0
  0
POLYLINE
  8
EBENE_1
 62
     4
  6
CONTINUOUS
 66
     1
 40
0.003000
 41
0.003000
  0
VERTEX
  8
EBENE_1
 62
     4
  6
CONTINUOUS
 10
8.477228
 20
-6.500500
  0
VERTEX
  8
EBENE_1
 62
     4
  6
CONTINUOUS
 10
8.477228
 20
0.984024
  0
SEQEND
  8
0
  0
TEXT
  8
EBENE_1
 62
     4
 10
8.541358
 20
-7.847713
 40
0.181884
  1
239,60 mm
 50
90.000660
 41
1.000000
  7
SN0
 71
     0
 72
     5
 11
8.541358
 21
-6.736307
  0
POLYLINE
  8
EBENE_1
 62
     4
  6
CONTINUOUS
 66
     1
 40
0.003000
 41
0.003000
  0
VERTEX
  8
EBENE_1
 62
     4
  6
CONTINUOUS
 10
-2.382551
 20
-8.862366
  0
VERTEX
  8
EBENE_1
 62
     4
  6
CONTINUOUS
 10
-3.640787
 20
-8.862366
  0
SEQEND
  8
0
  0
POLYLINE
  8
EBENE_1
 62
     4
  6
CONTINUOUS
 66
     1
 40
0.003000
 41
0.003000
  0
VERTEX
  8
EBENE_1
 62
     4
  6
CONTINUOUS
 10
-2.382543
 20
-8.448980
  0
VERTEX
  8
EBENE_1
 62
     4
  6
CONTINUOUS
 10
-3.640787
 20
-8.448980
  0
SEQEND
  8
0
  0
POLYLINE
  8
EBENE_1
 62
     4
  6
CONTINUOUS
 66
     1
 40
0.003000
 41
0.003000
  0
VERTEX
  8
EBENE_1
 62
     4
  6
CONTINUOUS
 10
-3.440787
 20
-8.862366
  0
VERTEX
  8
EBENE_1
 62
     4
  6
CONTINUOUS
 10
-3.440787
 20
-8.869531
  0
SEQEND
  8
0
  0
POLYLINE
  8
EBENE_1
 62
     4
  6
CONTINUOUS
 66
     1
 40
0.003000
 41
0.003000
  0
VERTEX
  8
EBENE_1
 62
     4
  6
CONTINUOUS
 10
-3.440787
 20
-8.862366
  0
VERTEX
  8
EBENE_1
 62
     4
  6
CONTINUOUS
 10
-3.440787
 20
-8.448980
  0
SEQEND
  8
0
  0
TEXT
  8
EBENE_1
 62
     4
 10
-3.376657
 20
-10.093189
 40
0.181884
  1
10,50 mm
 50
90.000660
 41
1.000000
  7
SN0
 71
     0
 72
     5
 11
-3.376657
 21
-9.105604
  0
POLYLINE
  8
EBENE_1
 62
     4
  6
CONTINUOUS
 66
     1
 40
0.003000
 41
0.003000
  0
VERTEX
  8
EBENE_1
 62
     4
  6
CONTINUOUS
 10
-2.534126
 20
-8.645831
  0
VERTEX
  8
EBENE_1
 62
     4
  6
CONTINUOUS
 10
-3.113354
 20
-8.645831
  0
SEQEND
  8
0
  0
POLYLINE
  8
EBENE_1
 62
     4
  6
CONTINUOUS
 66
     1
 40
0.003000
 41
0.003000
  0
VERTEX
  8
EBENE_1
 62
     4
  6
CONTINUOUS
 10
-2.382551
 20
-8.448980
  0
VERTEX
  8
EBENE_1
 62
     4
  6
CONTINUOUS
 10
-3.113354
 20
-8.448980
  0
SEQEND
  8
0
  0
POLYLINE
  8
EBENE_1
 62
     4
  6
CONTINUOUS
 66
     1
 40
0.003000
 41
0.003000
  0
VERTEX
  8
EBENE_1
 62
     4
  6
CONTINUOUS
 10
-2.913354
 20
-8.645831
  0
VERTEX
  8
EBENE_1
 62
     4
  6
CONTINUOUS
 10
-2.913354
 20
-8.832165
  0
SEQEND
  8
0
  0
POLYLINE
  8
EBENE_1
 62
     4
  6
CONTINUOUS
 66
     1
 40
0.003000
 41
0.003000
  0
VERTEX
  8
EBENE_1
 62
     4
  6
CONTINUOUS
 10
-2.913354
 20
-8.645831
  0
VERTEX
  8
EBENE_1
 62
     4
  6
CONTINUOUS
 10
-2.913354
 20
-8.448980
  0
SEQEND
  8
0
  0
TEXT
  8
EBENE_1
 62
     4
 10
-2.849224
 20
-9.932268
 40
0.181884
  1
5,00 mm
 50
90.000660
 41
1.000000
  7
SN0
 71
     0
 72
     5
 11
-2.849224
 21
-9.068504
  0
POLYLINE
  8
EBENE_1
 62
     4
  6
CONTINUOUS
 66
     1
 40
0.003000
 41
0.003000
  0
VERTEX
  8
EBENE_1
 62
     4
  6
CONTINUOUS
 10
-2.500661
 20
-8.948980
  0
VERTEX
  8
EBENE_1
 62
     4
  6
CONTINUOUS
 10
-4.234150
 20
-8.948980
  0
SEQEND
  8
0
  0
POLYLINE
  8
EBENE_1
 62
     4
  6
CONTINUOUS
 66
     1
 40
0.003000
 41
0.003000
  0
VERTEX
  8
EBENE_1
 62
     4
  6
CONTINUOUS
 10
-2.382551
 20
-8.448980
  0
VERTEX
  8
EBENE_1
 62
     4
  6
CONTINUOUS
 10
-4.234150
 20
-8.448980
  0
SEQEND
  8
0
  0
POLYLINE
  8
EBENE_1
 62
     4
  6
CONTINUOUS
 66
     1
 40
0.003000
 41
0.003000
  0
VERTEX
  8
EBENE_1
 62
     4
  6
CONTINUOUS
 10
-4.034150
 20
-8.948980
  0
VERTEX
  8
EBENE_1
 62
     4
  6
CONTINUOUS
 10
-4.034150
 20
-8.448980
  0
SEQEND
  8
0
  0
TEXT
  8
EBENE_1
 62
     4
 10
-3.970020
 20
-10.179803
 40
0.181884
  1
12,70 mm
 50
90.000660
 41
1.000000
  7
SN0
 71
     0
 72
     5
 11
-3.970020
 21
-9.192219
  0
POLYLINE
  8
EBENE_1
 62
     4
  6
CONTINUOUS
 66
     1
 40
0.003000
 41
0.003000
  0
VERTEX
  8
EBENE_1
 62
     4
  6
CONTINUOUS
 10
3.760283
 20
3.362039
  0
VERTEX
  8
EBENE_1
 62
     4
  6
CONTINUOUS
 10
4.224016
 20
3.362039
  0
SEQEND
  8
0
  0
POLYLINE
  8
EBENE_1
 62
     4
  6
CONTINUOUS
 66
     1
 40
0.003000
 41
0.003000
  0
VERTEX
  8
EBENE_1
 62
     4
  6
CONTINUOUS
 10
3.760291
 20
8.027394
  0
VERTEX
  8
EBENE_1
 62
     4
  6
CONTINUOUS
 10
4.224016
 20
8.027394
  0
SEQEND
  8
0
  0
POLYLINE
  8
EBENE_1
 62
     4
  6
CONTINUOUS
 66
     1
 40
0.003000
 41
0.003000
  0
VERTEX
  8
EBENE_1
 62
     4
  6
CONTINUOUS
 10
4.024016
 20
3.362039
  0
VERTEX
  8
EBENE_1
 62
     4
  6
CONTINUOUS
 10
4.024016
 20
4.568181
  0
SEQEND
  8
0
  0
POLYLINE
  8
EBENE_1
 62
     4
  6
CONTINUOUS
 66
     1
 40
0.003000
 41
0.003000
  0
VERTEX
  8
EBENE_1
 62
     4
  6
CONTINUOUS
 10
4.024016
 20
6.148913
  0
VERTEX
  8
EBENE_1
 62
     4
  6
CONTINUOUS
 10
4.024016
 20
8.027394
  0
SEQEND
  8
0
  0
TEXT
  8
EBENE_1
 62
     4
 10
4.088146
 20
4.818181
 40
0.181884
  1
118,50 mm
 50
90.000660
 41
1.000000
  7
SN0
 71
     0
 72
     5
 11
4.088146
 21
5.929587
  0
POLYLINE
  8
EBENE_1
 62
     4
  6
CONTINUOUS
 66
     1
 40
0.003000
 41
0.003000
  0
VERTEX
  8
EBENE_1
 62
     4
  6
CONTINUOUS
 10
-2.382551
 20
8.027394
  0
VERTEX
  8
EBENE_1
 62
     4
  6
CONTINUOUS
 10
-3.371323
 20
8.027394
  0
SEQEND
  8
0
  0
POLYLINE
  8
EBENE_1
 62
     4
  6
CONTINUOUS
 66
     1
 40
0.003000
 41
0.003000
  0
VERTEX
  8
EBENE_1
 62
     4
  6
CONTINUOUS
 10
-2.382543
 20
4.090386
  0
VERTEX
  8
EBENE_1
 62
     4
  6
CONTINUOUS
 10
-3.371323
 20
4.090386
  0
SEQEND
  8
0
  0
POLYLINE
  8
EBENE_1
 62
     4
  6
CONTINUOUS
 66
     1
 40
0.003000
 41
0.003000
  0
VERTEX
  8
EBENE_1
 62
     4
  6
CONTINUOUS
 10
-3.171323
 20
8.027394
  0
VERTEX
  8
EBENE_1
 62
     4
  6
CONTINUOUS
 10
-3.171323
 20
7.495311
  0
SEQEND
  8
0
  0
POLYLINE
  8
EBENE_1
 62
     4
  6
CONTINUOUS
 66
     1
 40
0.003000
 41
0.003000
  0
VERTEX
  8
EBENE_1
 62
     4
  6
CONTINUOUS
 10
-3.171323
 20
5.898098
  0
VERTEX
  8
EBENE_1
 62
     4
  6
CONTINUOUS
 10
-3.171323
 20
4.090386
  0
SEQEND
  8
0
  0
TEXT
  8
EBENE_1
 62
     4
 10
-3.107193
 20
6.148098
 40
0.181884
  1
100,00 mm
 50
90.000660
 41
1.000000
  7
SN0
 71
     0
 72
     5
 11
-3.107193
 21
7.259504
  0
POLYLINE
  8
EBENE_1
 62
     4
  6
CONTINUOUS
 66
     1
 40
0.003000
 41
0.003000
  0
VERTEX
  8
EBENE_1
 62
     4
  6
CONTINUOUS
 10
-8.735701
 20
5.355740
  0
VERTEX
  8
EBENE_1
 62
     4
  6
CONTINUOUS
 10
-8.082646
 20
5.355740
  0
SEQEND
  8
0
  0
POLYLINE
  8
EBENE_1
 62
     4
  6
CONTINUOUS
 66
     1
 40
0.003000
 41
0.003000
  0
VERTEX
  8
EBENE_1
 62
     4
  6
CONTINUOUS
 10
-8.735693
 20
3.605740
  0
VERTEX
  8
EBENE_1
 62
     4
  6
CONTINUOUS
 10
-8.082646
 20
3.605740
  0
SEQEND
  8
0
  0
POLYLINE
  8
EBENE_1
 62
     4
  6
CONTINUOUS
 66
     1
 40
0.003000
 41
0.003000
  0
VERTEX
  8
EBENE_1
 62
     4
  6
CONTINUOUS
 10
-8.282646
 20
5.355740
  0
VERTEX
  8
EBENE_1
 62
     4
  6
CONTINUOUS
 10
-8.282646
 20
3.605740
  0
SEQEND
  8
0
  0
TEXT
  8
EBENE_1
 62
     4
 10
-8.218850
 20
5.598571
 40
0.181884
  1
44,45 mm
 50
90.000660
 41
1.000000
  7
SN0
 71
     0
 72
     5
 11
-8.218850
 21
6.586155
  0
POLYLINE
  8
EBENE_1
 62
     4
  6
CONTINUOUS
 66
     1
 40
0.003000
 41
0.003000
  0
VERTEX
  8
EBENE_1
 62
     4
  6
CONTINUOUS
 10
-8.735701
 20
3.605740
  0
VERTEX
  8
EBENE_1
 62
     4
  6
CONTINUOUS
 10
-7.731654
 20
3.605740
  0
SEQEND
  8
0
  0
POLYLINE
  8
EBENE_1
 62
     4
  6
CONTINUOUS
 66
     1
 40
0.003000
 41
0.003000
  0
VERTEX
  8
EBENE_1
 62
     4
  6
CONTINUOUS
 10
-12.775150
 20
3.362039
  0
VERTEX
  8
EBENE_1
 62
     4
  6
CONTINUOUS
 10
-7.731654
 20
3.362039
  0
SEQEND
  8
0
  0
POLYLINE
  8
EBENE_1
 62
     4
  6
CONTINUOUS
 66
     1
 40
0.003000
 41
0.003000
  0
VERTEX
  8
EBENE_1
 62
     4
  6
CONTINUOUS
 10
-7.931654
 20
3.605740
  0
VERTEX
  8
EBENE_1
 62
     4
  6
CONTINUOUS
 10
-7.931654
 20
3.784079
  0
SEQEND
  8
0
  0
POLYLINE
  8
EBENE_1
 62
     4
  6
CONTINUOUS
 66
     1
 40
0.003000
 41
0.003000
  0
VERTEX
  8
EBENE_1
 62
     4
  6
CONTINUOUS
 10
-7.931654
 20
3.605740
  0
VERTEX
  8
EBENE_1
 62
     4
  6
CONTINUOUS
 10
-7.931654
 20
3.362039
  0
SEQEND
  8
0
  0
TEXT
  8
EBENE_1
 62
     4
 10
-7.867524
 20
4.034079
 40
0.181884
  1
6,19 mm
 50
90.000660
 41
1.000000
  7
SN0
 71
     0
 72
     5
 11
-7.867524
 21
4.897842
  0
POLYLINE
  8
EBENE_1
 62
     4
  6
CONTINUOUS
 66
     1
 40
0.003000
 41
0.003000
  0
VERTEX
  8
EBENE_1
 62
     4
  6
CONTINUOUS
 10
-11.943260
 20
9.096291
  0
VERTEX
  8
EBENE_1
 62
     4
  6
CONTINUOUS
 10
-14.127945
 20
9.096291
  0
SEQEND
  8
0
  0
POLYLINE
  8
EBENE_1
 62
     4
  6
CONTINUOUS
 66
     1
 40
0.003000
 41
0.003000
  0
VERTEX
  8
EBENE_1
 62
     4
  6
CONTINUOUS
 10
-12.975150
 20
3.362039
  0
VERTEX
  8
EBENE_1
 62
     4
  6
CONTINUOUS
 10
-14.127945
 20
3.362039
  0
SEQEND
  8
0
  0
POLYLINE
  8
EBENE_1
 62
     4
  6
CONTINUOUS
 66
     1
 40
0.003000
 41
0.003000
  0
VERTEX
  8
EBENE_1
 62
     4
  6
CONTINUOUS
 10
-13.927945
 20
9.096291
  0
VERTEX
  8
EBENE_1
 62
     4
  6
CONTINUOUS
 10
-13.927945
 20
6.273319
  0
SEQEND
  8
0
  0
POLYLINE
  8
EBENE_1
 62
     4
  6
CONTINUOUS
 66
     1
 40
0.003000
 41
0.003000
  0
VERTEX
  8
EBENE_1
 62
     4
  6
CONTINUOUS
 10
-13.927945
 20
4.676106
  0
VERTEX
  8
EBENE_1
 62
     4
  6
CONTINUOUS
 10
-13.927945
 20
3.362039
  0
SEQEND
  8
0
  0
TEXT
  8
EBENE_1
 62
     4
 10
-13.863815
 20
4.926106
 40
0.181884
  1
145,65 mm
 50
90.000660
 41
1.000000
  7
SN0
 71
     0
 72
     5
 11
-13.863815
 21
6.037512
  0
POLYLINE
  8
EBENE_1
 62
     4
  6
CONTINUOUS
 66
     1
 40
0.003000
 41
0.003000
  0
VERTEX
  8
EBENE_1
 62
     4
  6
CONTINUOUS
 10
-12.975150
 20
3.362039
  0
VERTEX
  8
EBENE_1
 62
     4
  6
CONTINUOUS
 10
-14.498185
 20
3.362039
  0
SEQEND
  8
0
  0
POLYLINE
  8
EBENE_1
 62
     4
  6
CONTINUOUS
 66
     1
 40
0.003000
 41
0.003000
  0
VERTEX
  8
EBENE_1
 62
     4
  6
CONTINUOUS
 10
-12.778295
 20
9.349441
  0
VERTEX
  8
EBENE_1
 62
     4
  6
CONTINUOUS
 10
-14.498185
 20
9.349441
  0
SEQEND
  8
0
  0
POLYLINE
  8
EBENE_1
 62
     4
  6
CONTINUOUS
 66
     1
 40
0.003000
 41
0.003000
  0
VERTEX
  8
EBENE_1
 62
     4
  6
CONTINUOUS
 10
-14.298185
 20
3.362039
  0
VERTEX
  8
EBENE_1
 62
     4
  6
CONTINUOUS
 10
-14.298185
 20
5.224610
  0
SEQEND
  8
0
  0
POLYLINE
  8
EBENE_1
 62
     4
  6
CONTINUOUS
 66
     1
 40
0.003000
 41
0.003000
  0
VERTEX
  8
EBENE_1
 62
     4
  6
CONTINUOUS
 10
-14.298185
 20
6.821823
  0
VERTEX
  8
EBENE_1
 62
     4
  6
CONTINUOUS
 10
-14.298185
 20
9.349441
  0
SEQEND
  8
0
  0
TEXT
  8
EBENE_1
 62
     4
 10
-14.234055
 20
5.474610
 40
0.181884
  1
152,08 mm
 50
90.000660
 41
1.000000
  7
SN0
 71
     0
 72
     5
 11
-14.234055
 21
6.586016
  0
POLYLINE
  8
EBENE_1
 62
     4
  6
CONTINUOUS
 66
     1
 40
0.003000
 41
0.003000
  0
VERTEX
  8
EBENE_1
 62
     4
  6
CONTINUOUS
 10
-12.975150
 20
3.362039
  0
VERTEX
  8
EBENE_1
 62
     4
  6
CONTINUOUS
 10
-13.661717
 20
3.362039
  0
SEQEND
  8
0
  0
POLYLINE
  8
EBENE_1
 62
     4
  6
CONTINUOUS
 66
     1
 40
0.003000
 41
0.003000
  0
VERTEX
  8
EBENE_1
 62
     4
  6
CONTINUOUS
 10
-12.325150
 20
4.629756
  0
VERTEX
  8
EBENE_1
 62
     4
  6
CONTINUOUS
 10
-13.661717
 20
4.629756
  0
SEQEND
  8
0
  0
POLYLINE
  8
EBENE_1
 62
     4
  6
CONTINUOUS
 66
     1
 40
0.003000
 41
0.003000
  0
VERTEX
  8
EBENE_1
 62
     4
  6
CONTINUOUS
 10
-13.461717
 20
3.362039
  0
VERTEX
  8
EBENE_1
 62
     4
  6
CONTINUOUS
 10
-13.461717
 20
4.629756
  0
SEQEND
  8
0
  0
POLYLINE
  8
EBENE_1
 62
     4
  6
CONTINUOUS
 66
     1
 40
0.003000
 41
0.003000
  0
VERTEX
  8
EBENE_1
 62
     4
  6
CONTINUOUS
 10
-13.461717
 20
4.629756
  0
VERTEX
  8
EBENE_1
 62
     4
  6
CONTINUOUS
 10
-13.461717
 20
5.409803
  0
SEQEND
  8
0
  0
TEXT
  8
EBENE_1
 62
     4
 10
-13.397587
 20
5.659803
 40
0.181884
  1
32,20 mm
 50
90.000660
 41
1.000000
  7
SN0
 71
     0
 72
     5
 11
-13.397587
 21
6.647388
  0
POLYLINE
  8
EBENE_1
 62
     4
  6
CONTINUOUS
 66
     1
 40
0.003000
 41
0.003000
  0
VERTEX
  8
EBENE_1
 62
     4
  6
CONTINUOUS
 10
-9.439323
 20
3.690780
  0
VERTEX
  8
EBENE_1
 62
     4
  6
CONTINUOUS
 10
-13.346327
 20
3.690780
  0
SEQEND
  8
0
  0
POLYLINE
  8
EBENE_1
 62
     4
  6
CONTINUOUS
 66
     1
 40
0.003000
 41
0.003000
  0
VERTEX
  8
EBENE_1
 62
     4
  6
CONTINUOUS
 10
-12.975150
 20
3.362039
  0
VERTEX
  8
EBENE_1
 62
     4
  6
CONTINUOUS
 10
-13.346327
 20
3.362039
  0
SEQEND
  8
0
  0
POLYLINE
  8
EBENE_1
 62
     4
  6
CONTINUOUS
 66
     1
 40
0.003000
 41
0.003000
  0
VERTEX
  8
EBENE_1
 62
     4
  6
CONTINUOUS
 10
-13.146327
 20
3.690780
  0
VERTEX
  8
EBENE_1
 62
     4
  6
CONTINUOUS
 10
-13.146327
 20
3.362039
  0
SEQEND
  8
0
  0
POLYLINE
  8
EBENE_1
 62
     4
  6
CONTINUOUS
 66
     1
 40
0.003000
 41
0.003000
  0
VERTEX
  8
EBENE_1
 62
     4
  6
CONTINUOUS
 10
-13.146327
 20
3.362039
  0
VERTEX
  8
EBENE_1
 62
     4
  6
CONTINUOUS
 10
-13.146327
 20
3.324969
  0
SEQEND
  8
0
  0
TEXT
  8
EBENE_1
 62
     4
 10
-13.082197
 20
2.224866
 40
0.181884
  1
8,35 mm
 50
90.000660
 41
1.000000
  7
SN0
 71
     0
 72
     5
 11
-13.082197
 21
3.088630
  0
POLYLINE
  8
EBENE_1
 62
     4
  6
CONTINUOUS
 66
     1
 40
0.003000
 41
0.003000
  0
VERTEX
  8
EBENE_1
 62
     4
  6
CONTINUOUS
 10
-12.875150
 20
9.252587
  0
VERTEX
  8
EBENE_1
 62
     4
  6
CONTINUOUS
 10
-12.875150
 20
9.987638
  0
SEQEND
  8
0
  0
POLYLINE
  8
EBENE_1
 62
     4
  6
CONTINUOUS
 66
     1
 40
0.003000
 41
0.003000
  0
VERTEX
  8
EBENE_1
 62
     4
  6
CONTINUOUS
 10
-12.225150
 20
4.729756
  0
VERTEX
  8
EBENE_1
 62
     4
  6
CONTINUOUS
 10
-12.225150
 20
9.987638
  0
SEQEND
  8
0
  0
POLYLINE
  8
EBENE_1
 62
     4
  6
CONTINUOUS
 66
     1
 40
0.003000
 41
0.003000
  0
VERTEX
  8
EBENE_1
 62
     4
  6
CONTINUOUS
 10
-12.875150
 20
9.787638
  0
VERTEX
  8
EBENE_1
 62
     4
  6
CONTINUOUS
 10
-12.225150
 20
9.787638
  0
SEQEND
  8
0
  0
TEXT
  8
EBENE_1
 62
     4
 10
-14.105972
 20
9.692028
 40
0.181884
  1
16,51 mm
 41
1.000000
  7
SN0
 71
     0
 72
     5
 11
-13.118388
 21
9.692028
  0
POLYLINE
  8
EBENE_1
 62
     4
  6
CONTINUOUS
 66
     1
 40
0.003000
 41
0.003000
  0
VERTEX
  8
EBENE_1
 62
     4
  6
CONTINUOUS
 10
-12.875150
 20
9.252587
  0
VERTEX
  8
EBENE_1
 62
     4
  6
CONTINUOUS
 10
-12.875150
 20
10.426441
  0
SEQEND
  8
0
  0
POLYLINE
  8
EBENE_1
 62
     4
  6
CONTINUOUS
 66
     1
 40
0.003000
 41
0.003000
  0
VERTEX
  8
EBENE_1
 62
     4
  6
CONTINUOUS
 10
-11.843260
 20
9.196291
  0
VERTEX
  8
EBENE_1
 62
     4
  6
CONTINUOUS
 10
-11.843260
 20
10.426441
  0
SEQEND
  8
0
  0
POLYLINE
  8
EBENE_1
 62
     4
  6
CONTINUOUS
 66
     1
 40
0.003000
 41
0.003000
  0
VERTEX
  8
EBENE_1
 62
     4
  6
CONTINUOUS
 10
-12.875150
 20
10.226441
  0
VERTEX
  8
EBENE_1
 62
     4
  6
CONTINUOUS
 10
-11.843260
 20
10.226441
  0
SEQEND
  8
0
  0
TEXT
  8
EBENE_1
 62
     4
 10
-14.105972
 20
10.130831
 40
0.181884
  1
26,21 mm
 41
1.000000
  7
SN0
 71
     0
 72
     5
 11
-13.118388
 21
10.130831
  0
POLYLINE
  8
EBENE_1
 62
     4
  6
CONTINUOUS
 66
     1
 40
0.003000
 41
0.003000
  0
VERTEX
  8
EBENE_1
 62
     4
  6
CONTINUOUS
 10
-12.875150
 20
9.252587
  0
VERTEX
  8
EBENE_1
 62
     4
  6
CONTINUOUS
 10
-12.875150
 20
10.751488
  0
SEQEND
  8
0
  0
POLYLINE
  8
EBENE_1
 62
     4
  6
CONTINUOUS
 66
     1
 40
0.003000
 41
0.003000
  0
VERTEX
  8
EBENE_1
 62
     4
  6
CONTINUOUS
 10
-9.339323
 20
9.196291
  0
VERTEX
  8
EBENE_1
 62
     4
  6
CONTINUOUS
 10
-9.339323
 20
10.751488
  0
SEQEND
  8
0
  0
POLYLINE
  8
EBENE_1
 62
     4
  6
CONTINUOUS
 66
     1
 40
0.003000
 41
0.003000
  0
VERTEX
  8
EBENE_1
 62
     4
  6
CONTINUOUS
 10
-12.875150
 20
10.551488
  0
VERTEX
  8
EBENE_1
 62
     4
  6
CONTINUOUS
 10
-12.882315
 20
10.551488
  0
SEQEND
  8
0
  0
POLYLINE
  8
EBENE_1
 62
     4
  6
CONTINUOUS
 66
     1
 40
0.003000
 41
0.003000
  0
VERTEX
  8
EBENE_1
 62
     4
  6
CONTINUOUS
 10
-12.875150
 20
10.551488
  0
VERTEX
  8
EBENE_1
 62
     4
  6
CONTINUOUS
 10
-9.339323
 20
10.551488
  0
SEQEND
  8
0
  0
TEXT
  8
EBENE_1
 62
     4
 10
-14.105972
 20
10.487358
 40
0.181884
  1
89,81 mm
 41
1.000000
  7
SN0
 71
     0
 72
     5
 11
-13.118388
 21
10.487358
  0
POLYLINE
  8
EBENE_1
 62
     4
  6
CONTINUOUS
 66
     1
 40
0.003000
 41
0.003000
  0
VERTEX
  8
EBENE_1
 62
     4
  6
CONTINUOUS
 10
-8.835701
 20
5.255740
  0
VERTEX
  8
EBENE_1
 62
     4
  6
CONTINUOUS
 10
-8.835701
 20
4.815764
  0
SEQEND
  8
0
  0
POLYLINE
  8
EBENE_1
 62
     4
  6
CONTINUOUS
 66
     1
 40
0.003000
 41
0.003000
  0
VERTEX
  8
EBENE_1
 62
     4
  6
CONTINUOUS
 10
-2.585701
 20
5.255740
  0
VERTEX
  8
EBENE_1
 62
     4
  6
CONTINUOUS
 10
-2.585701
 20
4.815764
  0
SEQEND
  8
0
  0
POLYLINE
  8
EBENE_1
 62
     4
  6
CONTINUOUS
 66
     1
 40
0.003000
 41
0.003000
  0
VERTEX
  8
EBENE_1
 62
     4
  6
CONTINUOUS
 10
-8.835701
 20
5.015764
  0
VERTEX
  8
EBENE_1
 62
     4
  6
CONTINUOUS
 10
-6.386484
 20
5.015764
  0
SEQEND
  8
0
  0
POLYLINE
  8
EBENE_1
 62
     4
  6
CONTINUOUS
 66
     1
 40
0.003000
 41
0.003000
  0
VERTEX
  8
EBENE_1
 62
     4
  6
CONTINUOUS
 10
-4.789272
 20
5.015764
  0
VERTEX
  8
EBENE_1
 62
     4
  6
CONTINUOUS
 10
-2.585701
 20
5.015764
  0
SEQEND
  8
0
  0
TEXT
  8
EBENE_1
 62
     4
 10
-6.136484
 20
4.951634
 40
0.181884
  1
158,75 mm
 41
1.000000
  7
SN0
 71
     0
 72
     5
 11
-5.025079
 21
4.951634
  0
POLYLINE
  8
EBENE_1
 62
     4
  6
CONTINUOUS
 66
     1
 40
0.003000
 41
0.003000
  0
VERTEX
  8
EBENE_1
 62
     4
  6
CONTINUOUS
 10
-8.835701
 20
5.455740
  0
VERTEX
  8
EBENE_1
 62
     4
  6
CONTINUOUS
 10
-8.835701
 20
11.016945
  0
SEQEND
  8
0
  0
POLYLINE
  8
EBENE_1
 62
     4
  6
CONTINUOUS
 66
     1
 40
0.003000
 41
0.003000
  0
VERTEX
  8
EBENE_1
 62
     4
  6
CONTINUOUS
 10
-12.875150
 20
9.252587
  0
VERTEX
  8
EBENE_1
 62
     4
  6
CONTINUOUS
 10
-12.875150
 20
11.016945
  0
SEQEND
  8
0
  0
POLYLINE
  8
EBENE_1
 62
     4
  6
CONTINUOUS
 66
     1
 40
0.003000
 41
0.003000
  0
VERTEX
  8
EBENE_1
 62
     4
  6
CONTINUOUS
 10
-8.835701
 20
10.816945
  0
VERTEX
  8
EBENE_1
 62
     4
  6
CONTINUOUS
 10
-12.875150
 20
10.816945
  0
SEQEND
  8
0
  0
TEXT
  8
EBENE_1
 62
     4
 10
-8.592870
 20
10.752815
 40
0.181884
  1
102,60 mm
 41
1.000000
  7
SN0
 71
     0
 72
     5
 11
-7.481464
 21
10.752815
  0
POLYLINE
  8
EBENE_1
 62
     4
  6
CONTINUOUS
 66
     1
 40
0.003000
 41
0.003000
  0
VERTEX
  8
EBENE_1
 62
     4
  6
CONTINUOUS
 10
-2.685701
 20
5.355740
  0
VERTEX
  8
EBENE_1
 62
     4
  6
CONTINUOUS
 10
-5.523244
 20
5.355740
  0
SEQEND
  8
0
  0
POLYLINE
  8
EBENE_1
 62
     4
  6
CONTINUOUS
 66
     1
 40
0.003000
 41
0.003000
  0
VERTEX
  8
EBENE_1
 62
     4
  6
CONTINUOUS
 10
-3.091213
 20
9.349441
  0
VERTEX
  8
EBENE_1
 62
     4
  6
CONTINUOUS
 10
-5.523244
 20
9.349441
  0
SEQEND
  8
0
  0
POLYLINE
  8
EBENE_1
 62
     4
  6
CONTINUOUS
 66
     1
 40
0.003000
 41
0.003000
  0
VERTEX
  8
EBENE_1
 62
     4
  6
CONTINUOUS
 10
-5.323244
 20
5.355740
  0
VERTEX
  8
EBENE_1
 62
     4
  6
CONTINUOUS
 10
-5.323244
 20
6.526665
  0
SEQEND
  8
0
  0
POLYLINE
  8
EBENE_1
 62
     4
  6
CONTINUOUS
 66
     1
 40
0.003000
 41
0.003000
  0
VERTEX
  8
EBENE_1
 62
     4
  6
CONTINUOUS
 10
-5.323244
 20
8.123878
  0
VERTEX
  8
EBENE_1
 62
     4
  6
CONTINUOUS
 10
-5.323244
 20
9.349441
  0
SEQEND
  8
0
  0
TEXT
  8
EBENE_1
 62
     4
 10
-5.259114
 20
6.776665
 40
0.181884
  1
101,44 mm
 50
90.000660
 41
1.000000
  7
SN0
 71
     0
 72
     5
 11
-5.259114
 21
7.888071
  0
POLYLINE
  8
EBENE_1
 62
     4
  6
CONTINUOUS
 66
     1
 40
0.003000
 41
0.003000
  0
VERTEX
  8
EBENE_1
 62
     4
  6
CONTINUOUS
 10
-0.245193
 20
12.970016
  0
VERTEX
  8
EBENE_1
 62
     4
  6
CONTINUOUS
 10
-2.794362
 20
12.970016
  0
SEQEND
  8
0
  0
POLYLINE
  8
EBENE_1
 62
     4
  6
CONTINUOUS
 66
     1
 40
0.003000
 41
0.003000
  0
VERTEX
  8
EBENE_1
 62
     4
  6
CONTINUOUS
 10
3.660283
 20
12.970016
  0
VERTEX
  8
EBENE_1
 62
     4
  6
CONTINUOUS
 10
1.352020
 20
12.970016
  0
SEQEND
  8
0
  0
POLYLINE
  8
EBENE_1
 62
     4
  6
CONTINUOUS
 66
     1
 40
0.003000
 41
0.003000
  0
VERTEX
  8
EBENE_1
 62
     4
  6
CONTINUOUS
 10
-2.794362
 20
8.009283
  0
VERTEX
  8
EBENE_1
 62
     4
  6
CONTINUOUS
 10
-2.794362
 20
13.170016
  0
SEQEND
  8
0
  0
POLYLINE
  8
EBENE_1
 62
     4
  6
CONTINUOUS
 66
     1
 40
0.003000
 41
0.003000
  0
VERTEX
  8
EBENE_1
 62
     4
  6
CONTINUOUS
 10
3.660283
 20
8.127394
  0
VERTEX
  8
EBENE_1
 62
     4
  6
CONTINUOUS
 10
3.660283
 20
13.170016
  0
SEQEND
  8
0
  0
TEXT
  8
EBENE_1
 62
     4
 10
0.004807
 20
12.905886
 40
0.181884
  1
163,95 mm
 41
1.000000
  7
SN0
 71
     0
 72
     5
 11
1.116213
 21
12.905886
  0
POLYLINE
  8
EBENE_1
 62
     4
  6
CONTINUOUS
 66
     1
 40
0.003000
 41
0.003000
  0
VERTEX
  8
EBENE_1
 62
     4
  6
CONTINUOUS
 10
3.660283
 20
8.127394
  0
VERTEX
  8
EBENE_1
 62
     4
  6
CONTINUOUS
 10
3.660283
 20
8.719622
  0
SEQEND
  8
0
  0
POLYLINE
  8
EBENE_1
 62
     4
  6
CONTINUOUS
 66
     1
 40
0.003000
 41
0.003000
  0
VERTEX
  8
EBENE_1
 62
     4
  6
CONTINUOUS
 10
3.008760
 20
8.127394
  0
VERTEX
  8
EBENE_1
 62
     4
  6
CONTINUOUS
 10
3.008760
 20
8.719622
  0
SEQEND
  8
0
  0
POLYLINE
  8
EBENE_1
 62
     4
  6
CONTINUOUS
 66
     1
 40
0.003000
 41
0.003000
  0
VERTEX
  8
EBENE_1
 62
     4
  6
CONTINUOUS
 10
3.660283
 20
8.519622
  0
VERTEX
  8
EBENE_1
 62
     4
  6
CONTINUOUS
 10
3.008760
 20
8.519622
  0
SEQEND
  8
0
  0
TEXT
  8
EBENE_1
 62
     4
 10
3.903114
 20
8.455492
 40
0.181884
  1
16,55 mm
 41
1.000000
  7
SN0
 71
     0
 72
     5
 11
4.890699
 21
8.455492
  0
POLYLINE
  8
EBENE_1
 62
     4
  6
CONTINUOUS
 66
     1
 40
0.003000
 41
0.003000
  0
VERTEX
  8
EBENE_1
 62
     4
  6
CONTINUOUS
 10
3.660283
 20
8.127394
  0
VERTEX
  8
EBENE_1
 62
     4
  6
CONTINUOUS
 10
3.660283
 20
9.107378
  0
SEQEND
  8
0
  0
POLYLINE
  8
EBENE_1
 62
     4
  6
CONTINUOUS
 66
     1
 40
0.003000
 41
0.003000
  0
VERTEX
  8
EBENE_1
 62
     4
  6
CONTINUOUS
 10
2.512701
 20
8.127394
  0
VERTEX
  8
EBENE_1
 62
     4
  6
CONTINUOUS
 10
2.512701
 20
9.107378
  0
SEQEND
  8
0
  0
POLYLINE
  8
EBENE_1
 62
     4
  6
CONTINUOUS
 66
     1
 40
0.003000
 41
0.003000
  0
VERTEX
  8
EBENE_1
 62
     4
  6
CONTINUOUS
 10
3.660283
 20
8.907378
  0
VERTEX
  8
EBENE_1
 62
     4
  6
CONTINUOUS
 10
2.512701
 20
8.907378
  0
SEQEND
  8
0
  0
TEXT
  8
EBENE_1
 62
     4
 10
3.903114
 20
8.843248
 40
0.181884
  1
29,15 mm
 41
1.000000
  7
SN0
 71
     0
 72
     5
 11
4.890699
 21
8.843248
  0
POLYLINE
  8
EBENE_1
 62
     4
  6
CONTINUOUS
 66
     1
 40
0.003000
 41
0.003000
  0
VERTEX
  8
EBENE_1
 62
     4
  6
CONTINUOUS
 10
3.660283
 20
8.009283
  0
VERTEX
  8
EBENE_1
 62
     4
  6
CONTINUOUS
 10
3.660283
 20
9.495134
  0
SEQEND
  8
0
  0
POLYLINE
  8
EBENE_1
 62
     4
  6
CONTINUOUS
 66
     1
 40
0.003000
 41
0.003000
  0
VERTEX
  8
EBENE_1
 62
     4
  6
CONTINUOUS
 10
2.209551
 20
8.127394
  0
VERTEX
  8
EBENE_1
 62
     4
  6
CONTINUOUS
 10
2.209551
 20
9.495134
  0
SEQEND
  8
0
  0
POLYLINE
  8
EBENE_1
 62
     4
  6
CONTINUOUS
 66
     1
 40
0.003000
 41
0.003000
  0
VERTEX
  8
EBENE_1
 62
     4
  6
CONTINUOUS
 10
3.660283
 20
9.295134
  0
VERTEX
  8
EBENE_1
 62
     4
  6
CONTINUOUS
 10
2.209551
 20
9.295134
  0
SEQEND
  8
0
  0
TEXT
  8
EBENE_1
 62
     4
 10
3.903114
 20
9.231004
 40
0.181884
  1
36,85 mm
 41
1.000000
  7
SN0
 71
     0
 72
     5
 11
4.890699
 21
9.231004
  0
POLYLINE
  8
EBENE_1
 62
     4
  6
CONTINUOUS
 66
     1
 40
0.003000
 41
0.003000
  0
VERTEX
  8
EBENE_1
 62
     4
  6
CONTINUOUS
 10
2.045016
 20
9.625984
  0
VERTEX
  8
EBENE_1
 62
     4
  6
CONTINUOUS
 10
1.713492
 20
9.625984
  0
SEQEND
  8
0
  0
POLYLINE
  8
EBENE_1
 62
     4
  6
CONTINUOUS
 66
     1
 40
0.003000
 41
0.003000
  0
VERTEX
  8
EBENE_1
 62
     4
  6
CONTINUOUS
 10
3.660283
 20
9.625984
  0
VERTEX
  8
EBENE_1
 62
     4
  6
CONTINUOUS
 10
3.518669
 20
9.625984
  0
SEQEND
  8
0
  0
POLYLINE
  8
EBENE_1
 62
     4
  6
CONTINUOUS
 66
     1
 40
0.003000
 41
0.003000
  0
VERTEX
  8
EBENE_1
 62
     4
  6
CONTINUOUS
 10
1.713492
 20
8.127394
  0
VERTEX
  8
EBENE_1
 62
     4
  6
CONTINUOUS
 10
1.713492
 20
9.825984
  0
SEQEND
  8
0
  0
POLYLINE
  8
EBENE_1
 62
     4
  6
CONTINUOUS
 66
     1
 40
0.003000
 41
0.003000
  0
VERTEX
  8
EBENE_1
 62
     4
  6
CONTINUOUS
 10
3.660283
 20
8.068339
  0
VERTEX
  8
EBENE_1
 62
     4
  6
CONTINUOUS
 10
3.660283
 20
9.825984
  0
SEQEND
  8
0
  0
TEXT
  8
EBENE_1
 62
     4
 10
2.295016
 20
9.561854
 40
0.181884
  1
49,45 mm
 41
1.000000
  7
SN0
 71
     0
 72
     5
 11
3.282600
 21
9.561854
  0
POLYLINE
  8
EBENE_1
 62
     4
  6
CONTINUOUS
 66
     1
 40
0.003000
 41
0.003000
  0
VERTEX
  8
EBENE_1
 62
     4
  6
CONTINUOUS
 10
2.005063
 20
9.943823
  0
VERTEX
  8
EBENE_1
 62
     4
  6
CONTINUOUS
 10
1.410343
 20
9.943823
  0
SEQEND
  8
0
  0
POLYLINE
  8
EBENE_1
 62
     4
  6
CONTINUOUS
 66
     1
 40
0.003000
 41
0.003000
  0
VERTEX
  8
EBENE_1
 62
     4
  6
CONTINUOUS
 10
3.660283
 20
9.943823
  0
VERTEX
  8
EBENE_1
 62
     4
  6
CONTINUOUS
 10
3.478717
 20
9.943823
  0
SEQEND
  8
0
  0
POLYLINE
  8
EBENE_1
 62
     4
  6
CONTINUOUS
 66
     1
 40
0.003000
 41
0.003000
  0
VERTEX
  8
EBENE_1
 62
     4
  6
CONTINUOUS
 10
1.410343
 20
8.127394
  0
VERTEX
  8
EBENE_1
 62
     4
  6
CONTINUOUS
 10
1.410343
 20
10.143823
  0
SEQEND
  8
0
  0
POLYLINE
  8
EBENE_1
 62
     4
  6
CONTINUOUS
 66
     1
 40
0.003000
 41
0.003000
  0
VERTEX
  8
EBENE_1
 62
     4
  6
CONTINUOUS
 10
3.660283
 20
8.009283
  0
VERTEX
  8
EBENE_1
 62
     4
  6
CONTINUOUS
 10
3.660283
 20
10.143823
  0
SEQEND
  8
0
  0
TEXT
  8
EBENE_1
 62
     4
 10
2.255063
 20
9.879693
 40
0.181884
  1
57,15 mm
 41
1.000000
  7
SN0
 71
     0
 72
     5
 11
3.242648
 21
9.879693
  0
POLYLINE
  8
EBENE_1
 62
     4
  6
CONTINUOUS
 66
     1
 40
0.003000
 41
0.003000
  0
VERTEX
  8
EBENE_1
 62
     4
  6
CONTINUOUS
 10
2.070122
 20
10.223000
  0
VERTEX
  8
EBENE_1
 62
     4
  6
CONTINUOUS
 10
0.914283
 20
10.223000
  0
SEQEND
  8
0
  0
POLYLINE
  8
EBENE_1
 62
     4
  6
CONTINUOUS
 66
     1
 40
0.003000
 41
0.003000
  0
VERTEX
  8
EBENE_1
 62
     4
  6
CONTINUOUS
 10
3.660283
 20
10.223000
  0
VERTEX
  8
EBENE_1
 62
     4
  6
CONTINUOUS
 10
3.543776
 20
10.223000
  0
SEQEND
  8
0
  0
POLYLINE
  8
EBENE_1
 62
     4
  6
CONTINUOUS
 66
     1
 40
0.003000
 41
0.003000
  0
VERTEX
  8
EBENE_1
 62
     4
  6
CONTINUOUS
 10
0.914283
 20
8.127394
  0
VERTEX
  8
EBENE_1
 62
     4
  6
CONTINUOUS
 10
0.914283
 20
10.423000
  0
SEQEND
  8
0
  0
POLYLINE
  8
EBENE_1
 62
     4
  6
CONTINUOUS
 66
     1
 40
0.003000
 41
0.003000
  0
VERTEX
  8
EBENE_1
 62
     4
  6
CONTINUOUS
 10
3.660283
 20
8.127394
  0
VERTEX
  8
EBENE_1
 62
     4
  6
CONTINUOUS
 10
3.660283
 20
10.423000
  0
SEQEND
  8
0
  0
TEXT
  8
EBENE_1
 62
     4
 10
2.320122
 20
10.158870
 40
0.181884
  1
69,75 mm
 41
1.000000
  7
SN0
 71
     0
 72
     5
 11
3.307707
 21
10.158870
  0
POLYLINE
  8
EBENE_1
 62
     4
  6
CONTINUOUS
 66
     1
 40
0.003000
 41
0.003000
  0
VERTEX
  8
EBENE_1
 62
     4
  6
CONTINUOUS
 10
1.999937
 20
10.519146
  0
VERTEX
  8
EBENE_1
 62
     4
  6
CONTINUOUS
 10
0.611134
 20
10.519146
  0
SEQEND
  8
0
  0
POLYLINE
  8
EBENE_1
 62
     4
  6
CONTINUOUS
 66
     1
 40
0.003000
 41
0.003000
  0
VERTEX
  8
EBENE_1
 62
     4
  6
CONTINUOUS
 10
3.660283
 20
10.519146
  0
VERTEX
  8
EBENE_1
 62
     4
  6
CONTINUOUS
 10
3.473591
 20
10.519146
  0
SEQEND
  8
0
  0
POLYLINE
  8
EBENE_1
 62
     4
  6
CONTINUOUS
 66
     1
 40
0.003000
 41
0.003000
  0
VERTEX
  8
EBENE_1
 62
     4
  6
CONTINUOUS
 10
0.611134
 20
8.127394
  0
VERTEX
  8
EBENE_1
 62
     4
  6
CONTINUOUS
 10
0.611134
 20
10.719146
  0
SEQEND
  8
0
  0
POLYLINE
  8
EBENE_1
 62
     4
  6
CONTINUOUS
 66
     1
 40
0.003000
 41
0.003000
  0
VERTEX
  8
EBENE_1
 62
     4
  6
CONTINUOUS
 10
3.660283
 20
8.127394
  0
VERTEX
  8
EBENE_1
 62
     4
  6
CONTINUOUS
 10
3.660283
 20
10.719146
  0
SEQEND
  8
0
  0
TEXT
  8
EBENE_1
 62
     4
 10
2.249937
 20
10.455350
 40
0.181884
  1
77,45 mm
 41
1.000000
  7
SN0
 71
     0
 72
     5
 11
3.237522
 21
10.455350
  0
POLYLINE
  8
EBENE_1
 62
     4
  6
CONTINUOUS
 66
     1
 40
0.003000
 41
0.003000
  0
VERTEX
  8
EBENE_1
 62
     4
  6
CONTINUOUS
 10
1.890067
 20
10.768850
  0
VERTEX
  8
EBENE_1
 62
     4
  6
CONTINUOUS
 10
0.115075
 20
10.768850
  0
SEQEND
  8
0
  0
POLYLINE
  8
EBENE_1
 62
     4
  6
CONTINUOUS
 66
     1
 40
0.003000
 41
0.003000
  0
VERTEX
  8
EBENE_1
 62
     4
  6
CONTINUOUS
 10
3.660283
 20
10.768850
  0
VERTEX
  8
EBENE_1
 62
     4
  6
CONTINUOUS
 10
3.363720
 20
10.768850
  0
SEQEND
  8
0
  0
POLYLINE
  8
EBENE_1
 62
     4
  6
CONTINUOUS
 66
     1
 40
0.003000
 41
0.003000
  0
VERTEX
  8
EBENE_1
 62
     4
  6
CONTINUOUS
 10
0.115075
 20
8.127394
  0
VERTEX
  8
EBENE_1
 62
     4
  6
CONTINUOUS
 10
0.115075
 20
10.968850
  0
SEQEND
  8
0
  0
POLYLINE
  8
EBENE_1
 62
     4
  6
CONTINUOUS
 66
     1
 40
0.003000
 41
0.003000
  0
VERTEX
  8
EBENE_1
 62
     4
  6
CONTINUOUS
 10
3.660283
 20
8.068339
  0
VERTEX
  8
EBENE_1
 62
     4
  6
CONTINUOUS
 10
3.660283
 20
10.968850
  0
SEQEND
  8
0
  0
TEXT
  8
EBENE_1
 62
     4
 10
2.140067
 20
10.704720
 40
0.181884
  1
90,05 mm
 41
1.000000
  7
SN0
 71
     0
 72
     5
 11
3.127652
 21
10.704720
  0
POLYLINE
  8
EBENE_1
 62
     4
  6
CONTINUOUS
 66
     1
 40
0.003000
 41
0.003000
  0
VERTEX
  8
EBENE_1
 62
     4
  6
CONTINUOUS
 10
3.660283
 20
8.127394
  0
VERTEX
  8
EBENE_1
 62
     4
  6
CONTINUOUS
 10
3.660283
 20
11.227028
  0
SEQEND
  8
0
  0
POLYLINE
  8
EBENE_1
 62
     4
  6
CONTINUOUS
 66
     1
 40
0.003000
 41
0.003000
  0
VERTEX
  8
EBENE_1
 62
     4
  6
CONTINUOUS
 10
-0.188075
 20
8.127394
  0
VERTEX
  8
EBENE_1
 62
     4
  6
CONTINUOUS
 10
-0.188075
 20
11.227028
  0
SEQEND
  8
0
  0
POLYLINE
  8
EBENE_1
 62
     4
  6
CONTINUOUS
 66
     1
 40
0.003000
 41
0.003000
  0
VERTEX
  8
EBENE_1
 62
     4
  6
CONTINUOUS
 10
3.660283
 20
11.027028
  0
VERTEX
  8
EBENE_1
 62
     4
  6
CONTINUOUS
 10
3.356551
 20
11.027028
  0
SEQEND
  8
0
  0
POLYLINE
  8
EBENE_1
 62
     4
  6
CONTINUOUS
 66
     1
 40
0.003000
 41
0.003000
  0
VERTEX
  8
EBENE_1
 62
     4
  6
CONTINUOUS
 10
1.882898
 20
11.027028
  0
VERTEX
  8
EBENE_1
 62
     4
  6
CONTINUOUS
 10
-0.188075
 20
11.027028
  0
SEQEND
  8
0
  0
TEXT
  8
EBENE_1
 62
     4
 10
2.132898
 20
10.962898
 40
0.181884
  1
97,75 mm
 41
1.000000
  7
SN0
 71
     0
 72
     5
 11
3.120482
 21
10.962898
  0
POLYLINE
  8
EBENE_1
 62
     4
  6
CONTINUOUS
 66
     1
 40
0.003000
 41
0.003000
  0
VERTEX
  8
EBENE_1
 62
     4
  6
CONTINUOUS
 10
3.660283
 20
8.127394
  0
VERTEX
  8
EBENE_1
 62
     4
  6
CONTINUOUS
 10
3.660283
 20
11.486720
  0
SEQEND
  8
0
  0
POLYLINE
  8
EBENE_1
 62
     4
  6
CONTINUOUS
 66
     1
 40
0.003000
 41
0.003000
  0
VERTEX
  8
EBENE_1
 62
     4
  6
CONTINUOUS
 10
-0.684134
 20
8.127394
  0
VERTEX
  8
EBENE_1
 62
     4
  6
CONTINUOUS
 10
-0.684134
 20
11.486720
  0
SEQEND
  8
0
  0
POLYLINE
  8
EBENE_1
 62
     4
  6
CONTINUOUS
 66
     1
 40
0.003000
 41
0.003000
  0
VERTEX
  8
EBENE_1
 62
     4
  6
CONTINUOUS
 10
3.660283
 20
11.286720
  0
VERTEX
  8
EBENE_1
 62
     4
  6
CONTINUOUS
 10
3.380126
 20
11.286720
  0
SEQEND
  8
0
  0
POLYLINE
  8
EBENE_1
 62
     4
  6
CONTINUOUS
 66
     1
 40
0.003000
 41
0.003000
  0
VERTEX
  8
EBENE_1
 62
     4
  6
CONTINUOUS
 10
1.799394
 20
11.286720
  0
VERTEX
  8
EBENE_1
 62
     4
  6
CONTINUOUS
 10
-0.684134
 20
11.286720
  0
SEQEND
  8
0
  0
TEXT
  8
EBENE_1
 62
     4
 10
2.049394
 20
11.222591
 40
0.181884
  1
110,35 mm
 41
1.000000
  7
SN0
 71
     0
 72
     5
 11
3.160799
 21
11.222591
  0
POLYLINE
  8
EBENE_1
 62
     4
  6
CONTINUOUS
 66
     1
 40
0.003000
 41
0.003000
  0
VERTEX
  8
EBENE_1
 62
     4
  6
CONTINUOUS
 10
3.660283
 20
8.127394
  0
VERTEX
  8
EBENE_1
 62
     4
  6
CONTINUOUS
 10
3.660283
 20
11.726437
  0
SEQEND
  8
0
  0
POLYLINE
  8
EBENE_1
 62
     4
  6
CONTINUOUS
 66
     1
 40
0.003000
 41
0.003000
  0
VERTEX
  8
EBENE_1
 62
     4
  6
CONTINUOUS
 10
-0.987283
 20
8.127394
  0
VERTEX
  8
EBENE_1
 62
     4
  6
CONTINUOUS
 10
-0.987283
 20
11.726437
  0
SEQEND
  8
0
  0
POLYLINE
  8
EBENE_1
 62
     4
  6
CONTINUOUS
 66
     1
 40
0.003000
 41
0.003000
  0
VERTEX
  8
EBENE_1
 62
     4
  6
CONTINUOUS
 10
3.660283
 20
11.526437
  0
VERTEX
  8
EBENE_1
 62
     4
  6
CONTINUOUS
 10
3.360150
 20
11.526437
  0
SEQEND
  8
0
  0
POLYLINE
  8
EBENE_1
 62
     4
  6
CONTINUOUS
 66
     1
 40
0.003000
 41
0.003000
  0
VERTEX
  8
EBENE_1
 62
     4
  6
CONTINUOUS
 10
1.779417
 20
11.526437
  0
VERTEX
  8
EBENE_1
 62
     4
  6
CONTINUOUS
 10
-0.987283
 20
11.526437
  0
SEQEND
  8
0
  0
TEXT
  8
EBENE_1
 62
     4
 10
2.029417
 20
11.462307
 40
0.181884
  1
118,05 mm
 41
1.000000
  7
SN0
 71
     0
 72
     5
 11
3.140823
 21
11.462307
  0
POLYLINE
  8
EBENE_1
 62
     4
  6
CONTINUOUS
 66
     1
 40
0.003000
 41
0.003000
  0
VERTEX
  8
EBENE_1
 62
     4
  6
CONTINUOUS
 10
3.660283
 20
8.127394
  0
VERTEX
  8
EBENE_1
 62
     4
  6
CONTINUOUS
 10
3.660283
 20
12.016094
  0
SEQEND
  8
0
  0
POLYLINE
  8
EBENE_1
 62
     4
  6
CONTINUOUS
 66
     1
 40
0.003000
 41
0.003000
  0
VERTEX
  8
EBENE_1
 62
     4
  6
CONTINUOUS
 10
-1.483343
 20
8.127394
  0
VERTEX
  8
EBENE_1
 62
     4
  6
CONTINUOUS
 10
-1.483343
 20
12.016094
  0
SEQEND
  8
0
  0
POLYLINE
  8
EBENE_1
 62
     4
  6
CONTINUOUS
 66
     1
 40
0.003000
 41
0.003000
  0
VERTEX
  8
EBENE_1
 62
     4
  6
CONTINUOUS
 10
3.660283
 20
11.816094
  0
VERTEX
  8
EBENE_1
 62
     4
  6
CONTINUOUS
 10
3.408343
 20
11.816094
  0
SEQEND
  8
0
  0
POLYLINE
  8
EBENE_1
 62
     4
  6
CONTINUOUS
 66
     1
 40
0.003000
 41
0.003000
  0
VERTEX
  8
EBENE_1
 62
     4
  6
CONTINUOUS
 10
1.811130
 20
11.816094
  0
VERTEX
  8
EBENE_1
 62
     4
  6
CONTINUOUS
 10
-1.483343
 20
11.816094
  0
SEQEND
  8
0
  0
TEXT
  8
EBENE_1
 62
     4
 10
2.061130
 20
11.751965
 40
0.181884
  1
130,65 mm
 41
1.000000
  7
SN0
 71
     0
 72
     5
 11
3.172536
 21
11.751965
  0
POLYLINE
  8
EBENE_1
 62
     4
  6
CONTINUOUS
 66
     1
 40
0.003000
 41
0.003000
  0
VERTEX
  8
EBENE_1
 62
     4
  6
CONTINUOUS
 10
3.660283
 20
8.127394
  0
VERTEX
  8
EBENE_1
 62
     4
  6
CONTINUOUS
 10
3.660283
 20
12.295764
  0
SEQEND
  8
0
  0
POLYLINE
  8
EBENE_1
 62
     4
  6
CONTINUOUS
 66
     1
 40
0.003000
 41
0.003000
  0
VERTEX
  8
EBENE_1
 62
     4
  6
CONTINUOUS
 10
-1.786492
 20
8.127394
  0
VERTEX
  8
EBENE_1
 62
     4
  6
CONTINUOUS
 10
-1.786492
 20
12.295764
  0
SEQEND
  8
0
  0
POLYLINE
  8
EBENE_1
 62
     4
  6
CONTINUOUS
 66
     1
 40
0.003000
 41
0.003000
  0
VERTEX
  8
EBENE_1
 62
     4
  6
CONTINUOUS
 10
3.660283
 20
12.095764
  0
VERTEX
  8
EBENE_1
 62
     4
  6
CONTINUOUS
 10
3.378378
 20
12.095764
  0
SEQEND
  8
0
  0
POLYLINE
  8
EBENE_1
 62
     4
  6
CONTINUOUS
 66
     1
 40
0.003000
 41
0.003000
  0
VERTEX
  8
EBENE_1
 62
     4
  6
CONTINUOUS
 10
1.781165
 20
12.095764
  0
VERTEX
  8
EBENE_1
 62
     4
  6
CONTINUOUS
 10
-1.786492
 20
12.095764
  0
SEQEND
  8
0
  0
TEXT
  8
EBENE_1
 62
     4
 10
2.031165
 20
12.031634
 40
0.181884
  1
138,35 mm
 41
1.000000
  7
SN0
 71
     0
 72
     5
 11
3.142571
 21
12.031634
  0
POLYLINE
  8
EBENE_1
 62
     4
  6
CONTINUOUS
 66
     1
 40
0.003000
 41
0.003000
  0
VERTEX
  8
EBENE_1
 62
     4
  6
CONTINUOUS
 10
3.660283
 20
8.127394
  0
VERTEX
  8
EBENE_1
 62
     4
  6
CONTINUOUS
 10
3.660283
 20
12.555457
  0
SEQEND
  8
0
  0
POLYLINE
  8
EBENE_1
 62
     4
  6
CONTINUOUS
 66
     1
 40
0.003000
 41
0.003000
  0
VERTEX
  8
EBENE_1
 62
     4
  6
CONTINUOUS
 10
-2.282551
 20
8.127394
  0
VERTEX
  8
EBENE_1
 62
     4
  6
CONTINUOUS
 10
-2.282551
 20
12.555457
  0
SEQEND
  8
0
  0
POLYLINE
  8
EBENE_1
 62
     4
  6
CONTINUOUS
 66
     1
 40
0.003000
 41
0.003000
  0
VERTEX
  8
EBENE_1
 62
     4
  6
CONTINUOUS
 10
3.660283
 20
12.355457
  0
VERTEX
  8
EBENE_1
 62
     4
  6
CONTINUOUS
 10
3.388366
 20
12.355457
  0
SEQEND
  8
0
  0
POLYLINE
  8
EBENE_1
 62
     4
  6
CONTINUOUS
 66
     1
 40
0.003000
 41
0.003000
  0
VERTEX
  8
EBENE_1
 62
     4
  6
CONTINUOUS
 10
1.791154
 20
12.355457
  0
VERTEX
  8
EBENE_1
 62
     4
  6
CONTINUOUS
 10
-2.282551
 20
12.355457
  0
SEQEND
  8
0
  0
TEXT
  8
EBENE_1
 62
     4
 10
2.041154
 20
12.291327
 40
0.181884
  1
150,95 mm
 41
1.000000
  7
SN0
 71
     0
 72
     5
 11
3.152559
 21
12.291327
  0
POLYLINE
  8
EBENE_1
 62
     4
  6
CONTINUOUS
 66
     1
 40
0.003000
 41
0.003000
  0
VERTEX
  8
EBENE_1
 62
     4
  6
CONTINUOUS
 10
3.660283
 20
8.127394
  0
VERTEX
  8
EBENE_1
 62
     4
  6
CONTINUOUS
 10
3.660283
 20
12.865091
  0
SEQEND
  8
0
  0
POLYLINE
  8
EBENE_1
 62
     4
  6
CONTINUOUS
 66
     1
 40
0.003000
 41
0.003000
  0
VERTEX
  8
EBENE_1
 62
     4
  6
CONTINUOUS
 10
-2.597512
 20
8.127394
  0
VERTEX
  8
EBENE_1
 62
     4
  6
CONTINUOUS
 10
-2.597512
 20
12.865091
  0
SEQEND
  8
0
  0
POLYLINE
  8
EBENE_1
 62
     4
  6
CONTINUOUS
 66
     1
 40
0.003000
 41
0.003000
  0
VERTEX
  8
EBENE_1
 62
     4
  6
CONTINUOUS
 10
3.660283
 20
12.665091
  0
VERTEX
  8
EBENE_1
 62
     4
  6
CONTINUOUS
 10
3.398354
 20
12.665091
  0
SEQEND
  8
0
  0
POLYLINE
  8
EBENE_1
 62
     4
  6
CONTINUOUS
 66
     1
 40
0.003000
 41
0.003000
  0
VERTEX
  8
EBENE_1
 62
     4
  6
CONTINUOUS
 10
1.801142
 20
12.665091
  0
VERTEX
  8
EBENE_1
 62
     4
  6
CONTINUOUS
 10
-2.597512
 20
12.665091
  0
SEQEND
  8
0
  0
TEXT
  8
EBENE_1
 62
     4
 10
2.051142
 20
12.600961
 40
0.181884
  1
158,95 mm
 41
1.000000
  7
SN0
 71
     0
 72
     5
 11
3.162547
 21
12.600961
  0
TEXT
  8
EBENE_1
 62
     4
 10
-12.576181
 20
11.845673
 40
0.414368
  1
Material: 3mm Aluminiumblech  blank
 41
1.000000
  7
SN0
 71
     0
 72
     5
 11
-4.281664
 21
11.845673
  0
ENDSEC
  0
EOF
